ISO-10303-21;
HEADER;
FILE_DESCRIPTION(('CoCreate Modeling STEP Export'),'2;1');
FILE_NAME('DF-OPR-S55-28.stp','2011-06-13T11:19:22',(''),(''),
'CoCreate Modeling STEP processor for AP214 (Solid Model)',
'CoCreate Modeling 16.50A  01-Dec-2009 (C) Parametric Technology GmbH',
'');
FILE_SCHEMA(('AUTOMOTIVE_DESIGN { 1 0 10303 214 1 1 1 1 }'));
ENDSEC;
DATA;
#10=CARTESIAN_POINT('',(-24.,-39.124733008786,-0.9));
#20=DIRECTION('',(0.,0.,1.));
#30=DIRECTION('',(1.,0.,0.));
#40=AXIS2_PLACEMENT_3D('',#10,#20,#30);
#50=PLANE('',#40);
#60=CARTESIAN_POINT('',(-1.99777694511129E-15,7.68880742997656E-15,-0.9)
);
#70=DIRECTION('',(-0.,-0.,-1.));
#80=DIRECTION('',(1.,-5.55111512312578E-17,0.));
#90=AXIS2_PLACEMENT_3D('',#60,#70,#80);
#100=CIRCLE('',#90,14.);
#110=CARTESIAN_POINT('',(14.,6.91165131273895E-15,-0.9));
#120=VERTEX_POINT('',#110);
#130=CARTESIAN_POINT('',(-14.,6.75145802840788E-15,-0.9));
#140=VERTEX_POINT('',#130);
#150=EDGE_CURVE('',#120,#140,#100,.T.);
#160=ORIENTED_EDGE('',*,*,#150,.F.);
#170=EDGE_CURVE('',#140,#120,#100,.T.);
#180=ORIENTED_EDGE('',*,*,#170,.F.);
#190=EDGE_LOOP('',(#180,#160));
#200=FACE_BOUND('',#190,.T.);
#210=CARTESIAN_POINT('',(-22.430057958017,12.95,-0.9));
#220=DIRECTION('',(0.,0.,-1.));
#230=DIRECTION('',(-1.,5.55111512312578E-17,0.));
#240=AXIS2_PLACEMENT_3D('',#210,#220,#230);
#250=CIRCLE('',#240,1.);
#260=CARTESIAN_POINT('',(-23.430057958017,12.95,-0.9));
#270=VERTEX_POINT('',#260);
#280=CARTESIAN_POINT('',(-21.430057958017,12.95,-0.9));
#290=VERTEX_POINT('',#280);
#300=EDGE_CURVE('',#270,#290,#250,.T.);
#310=ORIENTED_EDGE('',*,*,#300,.F.);
#320=EDGE_CURVE('',#290,#270,#250,.T.);
#330=ORIENTED_EDGE('',*,*,#320,.F.);
#340=EDGE_LOOP('',(#330,#310));
#350=FACE_BOUND('',#340,.T.);
#360=CARTESIAN_POINT('',(8.73824087032578E-15,-25.9,-0.9));
#370=DIRECTION('',(0.,0.,-1.));
#380=DIRECTION('',(-1.,-1.11022302462516E-16,0.));
#390=AXIS2_PLACEMENT_3D('',#360,#370,#380);
#400=CIRCLE('',#390,1.);
#410=CARTESIAN_POINT('',(7.12487830833301E-16,-26.9,-0.9));
#420=VERTEX_POINT('',#410);
#430=CARTESIAN_POINT('',(-1.,-25.9,-0.9));
#440=VERTEX_POINT('',#430);
#450=EDGE_CURVE('',#420,#440,#400,.T.);
#460=ORIENTED_EDGE('',*,*,#450,.F.);
#470=CARTESIAN_POINT('',(1.,-25.9,-0.9));
#480=VERTEX_POINT('',#470);
#490=EDGE_CURVE('',#440,#480,#400,.T.);
#500=ORIENTED_EDGE('',*,*,#490,.F.);
#510=EDGE_CURVE('',#480,#420,#400,.T.);
#520=ORIENTED_EDGE('',*,*,#510,.F.);
#530=EDGE_LOOP('',(#520,#500,#460));
#540=FACE_BOUND('',#530,.T.);
#550=CARTESIAN_POINT('',(22.430057958017,12.95,-0.9));
#560=DIRECTION('',(0.,0.,1.));
#570=DIRECTION('',(1.,0.,0.));
#580=AXIS2_PLACEMENT_3D('',#550,#560,#570);
#590=CIRCLE('',#580,1.);
#600=CARTESIAN_POINT('',(23.430057958017,12.95,-0.9));
#610=VERTEX_POINT('',#600);
#620=CARTESIAN_POINT('',(21.430057958017,12.95,-0.9));
#630=VERTEX_POINT('',#620);
#640=EDGE_CURVE('',#610,#630,#590,.T.);
#650=ORIENTED_EDGE('',*,*,#640,.T.);
#660=EDGE_CURVE('',#630,#610,#590,.T.);
#670=ORIENTED_EDGE('',*,*,#660,.T.);
#680=EDGE_LOOP('',(#670,#650));
#690=FACE_BOUND('',#680,.T.);
#700=CARTESIAN_POINT('',(-4.15570365131612E-15,4.13609375117606E-15,-0.9
));
#710=DIRECTION('',(0.,0.,1.));
#720=DIRECTION('',(1.,-1.66533453693773E-16,0.));
#730=AXIS2_PLACEMENT_3D('',#700,#710,#720);
#740=CIRCLE('',#730,27.4);
#750=CARTESIAN_POINT('',(-1.37520186270211E-14,-27.4,-0.9));
#760=VERTEX_POINT('',#750);
#770=CARTESIAN_POINT('',(27.4,-4.26922880033331E-16,-0.9));
#780=VERTEX_POINT('',#770);
#790=EDGE_CURVE('',#760,#780,#740,.T.);
#800=ORIENTED_EDGE('',*,*,#790,.F.);
#810=CARTESIAN_POINT('',(-27.4,1.20546426120492E-14,-0.9));
#820=VERTEX_POINT('',#810);
#830=EDGE_CURVE('',#780,#820,#740,.T.);
#840=ORIENTED_EDGE('',*,*,#830,.F.);
#850=EDGE_CURVE('',#820,#760,#740,.T.);
#860=ORIENTED_EDGE('',*,*,#850,.F.);
#870=EDGE_LOOP('',(#860,#840,#800));
#880=FACE_OUTER_BOUND('',#870,.T.);
#890=ADVANCED_FACE('',(#200,#350,#540,#690,#880),#50,.F.);
#900=CARTESIAN_POINT('',(1.99777694511129E-15,7.68880742997656E-15,1.1))
;
#910=DIRECTION('',(0.,0.,-1.));
#920=DIRECTION('',(-1.,5.55111512312578E-17,0.));
#930=AXIS2_PLACEMENT_3D('',#900,#910,#920);
#940=PLANE('',#930);
#950=CARTESIAN_POINT('',(22.430057958017,12.95,1.1));
#960=DIRECTION('',(0.,0.,1.));
#970=DIRECTION('',(1.,0.,0.));
#980=AXIS2_PLACEMENT_3D('',#950,#960,#970);
#990=CIRCLE('',#980,1.2);
#1000=CARTESIAN_POINT('',(23.630057958017,12.95,1.1));
#1010=VERTEX_POINT('',#1000);
#1020=CARTESIAN_POINT('',(21.230057958017,12.95,1.1));
#1030=VERTEX_POINT('',#1020);
#1040=EDGE_CURVE('',#1010,#1030,#990,.T.);
#1050=ORIENTED_EDGE('',*,*,#1040,.F.);
#1060=EDGE_CURVE('',#1030,#1010,#990,.T.);
#1070=ORIENTED_EDGE('',*,*,#1060,.F.);
#1080=EDGE_LOOP('',(#1070,#1050));
#1090=FACE_BOUND('',#1080,.T.);
#1100=CARTESIAN_POINT('',(-1.99777694511129E-15,7.68880742997656E-15,1.1
));
#1110=DIRECTION('',(-0.,-0.,-1.));
#1120=DIRECTION('',(1.,-5.55111512312578E-17,0.));
#1130=AXIS2_PLACEMENT_3D('',#1100,#1110,#1120);
#1140=CIRCLE('',#1130,14.);
#1150=CARTESIAN_POINT('',(14.,6.91165131273895E-15,1.1));
#1160=VERTEX_POINT('',#1150);
#1170=CARTESIAN_POINT('',(-14.,6.75145802840788E-15,1.1));
#1180=VERTEX_POINT('',#1170);
#1190=EDGE_CURVE('',#1160,#1180,#1140,.T.);
#1200=ORIENTED_EDGE('',*,*,#1190,.T.);
#1210=EDGE_CURVE('',#1180,#1160,#1140,.T.);
#1220=ORIENTED_EDGE('',*,*,#1210,.T.);
#1230=EDGE_LOOP('',(#1220,#1200));
#1240=FACE_BOUND('',#1230,.T.);
#1250=CARTESIAN_POINT('',(5.84301962192456E-16,-25.9,1.1));
#1260=DIRECTION('',(0.,0.,-1.));
#1270=DIRECTION('',(-1.,5.55111512312578E-17,0.));
#1280=AXIS2_PLACEMENT_3D('',#1250,#1260,#1270);
#1290=CIRCLE('',#1280,1.2);
#1300=CARTESIAN_POINT('',(1.2,-25.9,1.1));
#1310=VERTEX_POINT('',#1300);
#1320=CARTESIAN_POINT('',(-1.2,-25.9,1.1));
#1330=VERTEX_POINT('',#1320);
#1340=EDGE_CURVE('',#1310,#1330,#1290,.T.);
#1350=ORIENTED_EDGE('',*,*,#1340,.T.);
#1360=CARTESIAN_POINT('',(0.,-24.7,1.1));
#1370=VERTEX_POINT('',#1360);
#1380=EDGE_CURVE('',#1370,#1310,#1290,.T.);
#1390=ORIENTED_EDGE('',*,*,#1380,.T.);
#1400=EDGE_CURVE('',#1330,#1370,#1290,.T.);
#1410=ORIENTED_EDGE('',*,*,#1400,.T.);
#1420=EDGE_LOOP('',(#1410,#1390,#1350));
#1430=FACE_BOUND('',#1420,.T.);
#1440=CARTESIAN_POINT('',(-22.430057958017,12.95,1.1));
#1450=DIRECTION('',(0.,0.,-1.));
#1460=DIRECTION('',(-1.,5.55111512312578E-17,0.));
#1470=AXIS2_PLACEMENT_3D('',#1440,#1450,#1460);
#1480=CIRCLE('',#1470,1.2);
#1490=CARTESIAN_POINT('',(-23.630057958017,12.95,1.1));
#1500=VERTEX_POINT('',#1490);
#1510=CARTESIAN_POINT('',(-21.230057958017,12.95,1.1));
#1520=VERTEX_POINT('',#1510);
#1530=EDGE_CURVE('',#1500,#1520,#1480,.T.);
#1540=ORIENTED_EDGE('',*,*,#1530,.T.);
#1550=EDGE_CURVE('',#1520,#1500,#1480,.T.);
#1560=ORIENTED_EDGE('',*,*,#1550,.T.);
#1570=EDGE_LOOP('',(#1560,#1540));
#1580=FACE_BOUND('',#1570,.T.);
#1590=CARTESIAN_POINT('',(-4.15570365131612E-15,4.13609375117606E-15,1.1
));
#1600=DIRECTION('',(0.,0.,1.));
#1610=DIRECTION('',(1.,-1.66533453693773E-16,0.));
#1620=AXIS2_PLACEMENT_3D('',#1590,#1600,#1610);
#1630=CIRCLE('',#1620,27.4);
#1640=CARTESIAN_POINT('',(-27.4,1.20546426120492E-14,1.1));
#1650=VERTEX_POINT('',#1640);
#1660=CARTESIAN_POINT('',(27.4,-4.26922880033331E-16,1.1));
#1670=VERTEX_POINT('',#1660);
#1680=EDGE_CURVE('',#1650,#1670,#1630,.T.);
#1690=ORIENTED_EDGE('',*,*,#1680,.T.);
#1700=CARTESIAN_POINT('',(2.08507909472515E-15,27.4,1.1));
#1710=VERTEX_POINT('',#1700);
#1720=EDGE_CURVE('',#1710,#1650,#1630,.T.);
#1730=ORIENTED_EDGE('',*,*,#1720,.T.);
#1740=EDGE_CURVE('',#1670,#1710,#1630,.T.);
#1750=ORIENTED_EDGE('',*,*,#1740,.T.);
#1760=EDGE_LOOP('',(#1750,#1730,#1690));
#1770=FACE_OUTER_BOUND('',#1760,.T.);
#1780=ADVANCED_FACE('',(#1090,#1240,#1430,#1580,#1770),#940,.F.);
#1790=CARTESIAN_POINT('',(-4.15570365131612E-15,4.13609375117606E-15,
1.11022302462516E-16));
#1800=DIRECTION('',(0.,0.,1.));
#1810=DIRECTION('',(1.,-1.66533453693773E-16,0.));
#1820=AXIS2_PLACEMENT_3D('',#1790,#1800,#1810);
#1830=CYLINDRICAL_SURFACE('',#1820,27.4);
#1840=CARTESIAN_POINT('',(-27.4,1.20546426120492E-14,
1.11022302462516E-16));
#1850=DIRECTION('',(0.,0.,1.));
#1860=VECTOR('',#1850,1.);
#1870=LINE('',#1840,#1860);
#1880=EDGE_CURVE('',#820,#1650,#1870,.T.);
#1890=ORIENTED_EDGE('',*,*,#1880,.F.);
#1900=ORIENTED_EDGE('',*,*,#1680,.F.);
#1910=CARTESIAN_POINT('',(27.4,-4.26922880033331E-16,
1.11022302462516E-16));
#1920=DIRECTION('',(0.,0.,1.));
#1930=VECTOR('',#1920,1.);
#1940=LINE('',#1910,#1930);
#1950=EDGE_CURVE('',#780,#1670,#1940,.T.);
#1960=ORIENTED_EDGE('',*,*,#1950,.T.);
#1970=ORIENTED_EDGE('',*,*,#790,.T.);
#1980=ORIENTED_EDGE('',*,*,#850,.T.);
#1990=EDGE_LOOP('',(#1980,#1970,#1960,#1900,#1890));
#2000=FACE_OUTER_BOUND('',#1990,.T.);
#2010=ADVANCED_FACE('',(#2000),#1830,.T.);
#2020=CARTESIAN_POINT('',(-2.42638339707442E-17,-25.9,0.));
#2030=DIRECTION('',(0.,0.,1.));
#2040=DIRECTION('',(1.,0.,0.));
#2050=AXIS2_PLACEMENT_3D('',#2020,#2030,#2040);
#2060=CYLINDRICAL_SURFACE('',#2050,1.);
#2070=CARTESIAN_POINT('',(5.84301962192456E-16,-25.9,0.9));
#2080=DIRECTION('',(0.,0.,-1.));
#2090=DIRECTION('',(-1.,5.55111512312578E-17,0.));
#2100=AXIS2_PLACEMENT_3D('',#2070,#2080,#2090);
#2110=CIRCLE('',#2100,1.);
#2120=CARTESIAN_POINT('',(7.12487830833301E-16,-26.9,0.9));
#2130=VERTEX_POINT('',#2120);
#2140=CARTESIAN_POINT('',(-1.,-25.9,0.9));
#2150=VERTEX_POINT('',#2140);
#2160=EDGE_CURVE('',#2130,#2150,#2110,.T.);
#2170=ORIENTED_EDGE('',*,*,#2160,.F.);
#2180=CARTESIAN_POINT('',(-1.,-25.9,0.));
#2190=DIRECTION('',(0.,0.,1.));
#2200=VECTOR('',#2190,1.);
#2210=LINE('',#2180,#2200);
#2220=EDGE_CURVE('',#440,#2150,#2210,.T.);
#2230=ORIENTED_EDGE('',*,*,#2220,.T.);
#2240=ORIENTED_EDGE('',*,*,#450,.T.);
#2250=ORIENTED_EDGE('',*,*,#510,.T.);
#2260=CARTESIAN_POINT('',(1.,-25.9,0.));
#2270=DIRECTION('',(0.,0.,1.));
#2280=VECTOR('',#2270,1.);
#2290=LINE('',#2260,#2280);
#2300=CARTESIAN_POINT('',(1.,-25.9,0.9));
#2310=VERTEX_POINT('',#2300);
#2320=EDGE_CURVE('',#480,#2310,#2290,.T.);
#2330=ORIENTED_EDGE('',*,*,#2320,.F.);
#2340=EDGE_CURVE('',#2310,#2130,#2110,.T.);
#2350=ORIENTED_EDGE('',*,*,#2340,.F.);
#2360=EDGE_LOOP('',(#2350,#2330,#2250,#2240,#2230,#2170));
#2370=FACE_OUTER_BOUND('',#2360,.T.);
#2380=ADVANCED_FACE('',(#2370),#2060,.F.);
#2390=CARTESIAN_POINT('',(22.430057958017,12.95,0.9));
#2400=DIRECTION('',(0.,0.,1.));
#2410=DIRECTION('',(1.,0.,0.));
#2420=AXIS2_PLACEMENT_3D('',#2390,#2400,#2410);
#2430=CONICAL_SURFACE('',#2420,1.,0.785398163397447);
#2440=CARTESIAN_POINT('',(23.430057958017,12.95,0.9));
#2450=DIRECTION('',(0.707106781186546,0.,0.707106781186549));
#2460=VECTOR('',#2450,1.4142135623731);
#2470=LINE('',#2440,#2460);
#2480=CARTESIAN_POINT('',(23.430057958017,12.95,0.9));
#2490=VERTEX_POINT('',#2480);
#2500=EDGE_CURVE('',#2490,#1010,#2470,.T.);
#2510=ORIENTED_EDGE('',*,*,#2500,.F.);
#2520=ORIENTED_EDGE('',*,*,#1060,.T.);
#2530=CARTESIAN_POINT('',(21.430057958017,12.95,0.9));
#2540=DIRECTION('',(-0.707106781186546,0.,0.707106781186549));
#2550=VECTOR('',#2540,1.4142135623731);
#2560=LINE('',#2530,#2550);
#2570=CARTESIAN_POINT('',(21.430057958017,12.95,0.9));
#2580=VERTEX_POINT('',#2570);
#2590=EDGE_CURVE('',#2580,#1030,#2560,.T.);
#2600=ORIENTED_EDGE('',*,*,#2590,.T.);
#2610=CARTESIAN_POINT('',(22.430057958017,12.95,0.9));
#2620=DIRECTION('',(0.,0.,1.));
#2630=DIRECTION('',(1.,0.,0.));
#2640=AXIS2_PLACEMENT_3D('',#2610,#2620,#2630);
#2650=CIRCLE('',#2640,1.);
#2660=EDGE_CURVE('',#2580,#2490,#2650,.T.);
#2670=ORIENTED_EDGE('',*,*,#2660,.F.);
#2680=EDGE_LOOP('',(#2670,#2600,#2520,#2510));
#2690=FACE_OUTER_BOUND('',#2680,.T.);
#2700=ADVANCED_FACE('',(#2690),#2430,.F.);
#2710=CARTESIAN_POINT('',(-2.42638339707442E-17,-25.9,0.9));
#2720=DIRECTION('',(0.,0.,1.));
#2730=DIRECTION('',(1.,0.,0.));
#2740=AXIS2_PLACEMENT_3D('',#2710,#2720,#2730);
#2750=CONICAL_SURFACE('',#2740,1.,0.785398163397448);
#2760=CARTESIAN_POINT('',(1.,-25.9,0.9));
#2770=DIRECTION('',(0.707106781186548,0.,0.707106781186548));
#2780=VECTOR('',#2770,1.41421356237309);
#2790=LINE('',#2760,#2780);
#2800=EDGE_CURVE('',#2310,#1310,#2790,.T.);
#2810=ORIENTED_EDGE('',*,*,#2800,.F.);
#2820=ORIENTED_EDGE('',*,*,#1340,.F.);
#2830=CARTESIAN_POINT('',(-1.,-25.9,0.9));
#2840=DIRECTION('',(-0.707106781186548,0.,0.707106781186548));
#2850=VECTOR('',#2840,1.41421356237309);
#2860=LINE('',#2830,#2850);
#2870=EDGE_CURVE('',#2150,#1330,#2860,.T.);
#2880=ORIENTED_EDGE('',*,*,#2870,.T.);
#2890=ORIENTED_EDGE('',*,*,#2160,.T.);
#2900=ORIENTED_EDGE('',*,*,#2340,.T.);
#2910=EDGE_LOOP('',(#2900,#2890,#2880,#2820,#2810));
#2920=FACE_OUTER_BOUND('',#2910,.T.);
#2930=ADVANCED_FACE('',(#2920),#2750,.F.);
#2940=CARTESIAN_POINT('',(-1.99777694511129E-15,7.68880742997656E-15,
1.11022302462516E-16));
#2950=DIRECTION('',(0.,0.,1.));
#2960=DIRECTION('',(1.,-5.55111512312578E-17,0.));
#2970=AXIS2_PLACEMENT_3D('',#2940,#2950,#2960);
#2980=CYLINDRICAL_SURFACE('',#2970,14.);
#2990=CARTESIAN_POINT('',(14.,6.91165131273895E-15,1.11022302462516E-16)
);
#3000=DIRECTION('',(0.,0.,1.));
#3010=VECTOR('',#3000,1.);
#3020=LINE('',#2990,#3010);
#3030=EDGE_CURVE('',#120,#1160,#3020,.T.);
#3040=ORIENTED_EDGE('',*,*,#3030,.T.);
#3050=ORIENTED_EDGE('',*,*,#170,.T.);
#3060=CARTESIAN_POINT('',(-14.,6.75145802840788E-15,1.11022302462516E-16
));
#3070=DIRECTION('',(0.,0.,1.));
#3080=VECTOR('',#3070,1.);
#3090=LINE('',#3060,#3080);
#3100=EDGE_CURVE('',#140,#1180,#3090,.T.);
#3110=ORIENTED_EDGE('',*,*,#3100,.F.);
#3120=ORIENTED_EDGE('',*,*,#1210,.F.);
#3130=EDGE_LOOP('',(#3120,#3110,#3050,#3040));
#3140=FACE_OUTER_BOUND('',#3130,.T.);
#3150=ADVANCED_FACE('',(#3140),#2980,.F.);
#3160=CARTESIAN_POINT('',(22.430057958017,12.95,0.));
#3170=DIRECTION('',(0.,0.,1.));
#3180=DIRECTION('',(1.,0.,0.));
#3190=AXIS2_PLACEMENT_3D('',#3160,#3170,#3180);
#3200=CYLINDRICAL_SURFACE('',#3190,1.);
#3210=CARTESIAN_POINT('',(23.430057958017,12.95,0.));
#3220=DIRECTION('',(0.,0.,1.));
#3230=VECTOR('',#3220,1.);
#3240=LINE('',#3210,#3230);
#3250=EDGE_CURVE('',#610,#2490,#3240,.T.);
#3260=ORIENTED_EDGE('',*,*,#3250,.F.);
#3270=ORIENTED_EDGE('',*,*,#2660,.T.);
#3280=CARTESIAN_POINT('',(21.430057958017,12.95,0.));
#3290=DIRECTION('',(0.,0.,1.));
#3300=VECTOR('',#3290,1.);
#3310=LINE('',#3280,#3300);
#3320=EDGE_CURVE('',#630,#2580,#3310,.T.);
#3330=ORIENTED_EDGE('',*,*,#3320,.T.);
#3340=ORIENTED_EDGE('',*,*,#660,.F.);
#3350=EDGE_LOOP('',(#3340,#3330,#3270,#3260));
#3360=FACE_OUTER_BOUND('',#3350,.T.);
#3370=ADVANCED_FACE('',(#3360),#3200,.F.);
#3380=CARTESIAN_POINT('',(-22.430057958017,12.95,0.9));
#3390=DIRECTION('',(0.,0.,1.));
#3400=DIRECTION('',(-1.,5.55111512312578E-17,0.));
#3410=AXIS2_PLACEMENT_3D('',#3380,#3390,#3400);
#3420=CONICAL_SURFACE('',#3410,1.,0.785398163397447);
#3430=CARTESIAN_POINT('',(-21.430057958017,12.95,0.9));
#3440=DIRECTION('',(0.707106781186546,0.,0.707106781186549));
#3450=VECTOR('',#3440,1.4142135623731);
#3460=LINE('',#3430,#3450);
#3470=CARTESIAN_POINT('',(-21.430057958017,12.95,0.9));
#3480=VERTEX_POINT('',#3470);
#3490=EDGE_CURVE('',#3480,#1520,#3460,.T.);
#3500=ORIENTED_EDGE('',*,*,#3490,.F.);
#3510=ORIENTED_EDGE('',*,*,#1550,.F.);
#3520=CARTESIAN_POINT('',(-23.430057958017,12.95,0.9));
#3530=DIRECTION('',(-0.707106781186546,0.,0.707106781186549));
#3540=VECTOR('',#3530,1.4142135623731);
#3550=LINE('',#3520,#3540);
#3560=CARTESIAN_POINT('',(-23.430057958017,12.95,0.9));
#3570=VERTEX_POINT('',#3560);
#3580=EDGE_CURVE('',#3570,#1500,#3550,.T.);
#3590=ORIENTED_EDGE('',*,*,#3580,.T.);
#3600=CARTESIAN_POINT('',(-22.430057958017,12.95,0.9));
#3610=DIRECTION('',(0.,0.,-1.));
#3620=DIRECTION('',(-1.,5.55111512312578E-17,0.));
#3630=AXIS2_PLACEMENT_3D('',#3600,#3610,#3620);
#3640=CIRCLE('',#3630,1.);
#3650=EDGE_CURVE('',#3480,#3570,#3640,.T.);
#3660=ORIENTED_EDGE('',*,*,#3650,.T.);
#3670=EDGE_LOOP('',(#3660,#3590,#3510,#3500));
#3680=FACE_OUTER_BOUND('',#3670,.T.);
#3690=ADVANCED_FACE('',(#3680),#3420,.F.);
#3700=CARTESIAN_POINT('',(-22.430057958017,12.95,1.11022302462516E-16));
#3710=DIRECTION('',(0.,0.,1.));
#3720=DIRECTION('',(-1.,5.55111512312578E-17,0.));
#3730=AXIS2_PLACEMENT_3D('',#3700,#3710,#3720);
#3740=CYLINDRICAL_SURFACE('',#3730,1.);
#3750=CARTESIAN_POINT('',(-21.430057958017,12.95,1.11022302462516E-16));
#3760=DIRECTION('',(0.,0.,1.));
#3770=VECTOR('',#3760,1.);
#3780=LINE('',#3750,#3770);
#3790=EDGE_CURVE('',#290,#3480,#3780,.T.);
#3800=ORIENTED_EDGE('',*,*,#3790,.F.);
#3810=ORIENTED_EDGE('',*,*,#3650,.F.);
#3820=CARTESIAN_POINT('',(-23.430057958017,12.95,1.11022302462516E-16));
#3830=DIRECTION('',(0.,0.,1.));
#3840=VECTOR('',#3830,1.);
#3850=LINE('',#3820,#3840);
#3860=EDGE_CURVE('',#270,#3570,#3850,.T.);
#3870=ORIENTED_EDGE('',*,*,#3860,.T.);
#3880=ORIENTED_EDGE('',*,*,#320,.T.);
#3890=EDGE_LOOP('',(#3880,#3870,#3810,#3800));
#3900=FACE_OUTER_BOUND('',#3890,.T.);
#3910=ADVANCED_FACE('',(#3900),#3740,.F.);
#3920=ORIENTED_EDGE('',*,*,#1190,.F.);
#3930=ORIENTED_EDGE('',*,*,#3100,.T.);
#3940=ORIENTED_EDGE('',*,*,#150,.T.);
#3950=ORIENTED_EDGE('',*,*,#3030,.F.);
#3960=EDGE_LOOP('',(#3950,#3940,#3930,#3920));
#3970=FACE_OUTER_BOUND('',#3960,.T.);
#3980=ADVANCED_FACE('',(#3970),#2980,.F.);
#3990=EDGE_CURVE('',#3570,#3480,#3640,.T.);
#4000=ORIENTED_EDGE('',*,*,#3990,.F.);
#4010=ORIENTED_EDGE('',*,*,#3790,.T.);
#4020=ORIENTED_EDGE('',*,*,#300,.T.);
#4030=ORIENTED_EDGE('',*,*,#3860,.F.);
#4040=EDGE_LOOP('',(#4030,#4020,#4010,#4000));
#4050=FACE_OUTER_BOUND('',#4040,.T.);
#4060=ADVANCED_FACE('',(#4050),#3740,.F.);
#4070=ORIENTED_EDGE('',*,*,#1380,.F.);
#4080=ORIENTED_EDGE('',*,*,#2800,.T.);
#4090=EDGE_CURVE('',#2150,#2310,#2110,.T.);
#4100=ORIENTED_EDGE('',*,*,#4090,.T.);
#4110=ORIENTED_EDGE('',*,*,#2870,.F.);
#4120=ORIENTED_EDGE('',*,*,#1400,.F.);
#4130=EDGE_LOOP('',(#4120,#4110,#4100,#4080,#4070));
#4140=FACE_OUTER_BOUND('',#4130,.T.);
#4150=ADVANCED_FACE('',(#4140),#2750,.F.);
#4160=EDGE_CURVE('',#2490,#2580,#2650,.T.);
#4170=ORIENTED_EDGE('',*,*,#4160,.F.);
#4180=ORIENTED_EDGE('',*,*,#2590,.F.);
#4190=ORIENTED_EDGE('',*,*,#1040,.T.);
#4200=ORIENTED_EDGE('',*,*,#2500,.T.);
#4210=EDGE_LOOP('',(#4200,#4190,#4180,#4170));
#4220=FACE_OUTER_BOUND('',#4210,.T.);
#4230=ADVANCED_FACE('',(#4220),#2430,.F.);
#4240=ORIENTED_EDGE('',*,*,#640,.F.);
#4250=ORIENTED_EDGE('',*,*,#3320,.F.);
#4260=ORIENTED_EDGE('',*,*,#4160,.T.);
#4270=ORIENTED_EDGE('',*,*,#3250,.T.);
#4280=EDGE_LOOP('',(#4270,#4260,#4250,#4240));
#4290=FACE_OUTER_BOUND('',#4280,.T.);
#4300=ADVANCED_FACE('',(#4290),#3200,.F.);
#4310=ORIENTED_EDGE('',*,*,#1530,.F.);
#4320=ORIENTED_EDGE('',*,*,#3490,.T.);
#4330=ORIENTED_EDGE('',*,*,#3990,.T.);
#4340=ORIENTED_EDGE('',*,*,#3580,.F.);
#4350=EDGE_LOOP('',(#4340,#4330,#4320,#4310));
#4360=FACE_OUTER_BOUND('',#4350,.T.);
#4370=ADVANCED_FACE('',(#4360),#3420,.F.);
#4380=ORIENTED_EDGE('',*,*,#490,.T.);
#4390=ORIENTED_EDGE('',*,*,#2220,.F.);
#4400=ORIENTED_EDGE('',*,*,#4090,.F.);
#4410=ORIENTED_EDGE('',*,*,#2320,.T.);
#4420=EDGE_LOOP('',(#4410,#4400,#4390,#4380));
#4430=FACE_OUTER_BOUND('',#4420,.T.);
#4440=ADVANCED_FACE('',(#4430),#2060,.F.);
#4450=ORIENTED_EDGE('',*,*,#1720,.F.);
#4460=ORIENTED_EDGE('',*,*,#1880,.T.);
#4470=ORIENTED_EDGE('',*,*,#830,.T.);
#4480=ORIENTED_EDGE('',*,*,#1950,.F.);
#4490=ORIENTED_EDGE('',*,*,#1740,.F.);
#4500=EDGE_LOOP('',(#4490,#4480,#4470,#4460,#4450));
#4510=FACE_OUTER_BOUND('',#4500,.T.);
#4520=ADVANCED_FACE('',(#4510),#1830,.T.);
#4530=CLOSED_SHELL('',(#1780,#2010,#2380,#2700,#2930,#3150,#3370,#3690,
#3910,#3980,#4060,#4150,#4230,#4300,#4370,#4440,#4520,#890));
#4540=MANIFOLD_SOLID_BREP('',#4530);
#4550=CARTESIAN_POINT('',(0.,0.,0.));
#4560=DIRECTION('',(0.,0.,1.));
#4570=DIRECTION('',(1.,0.,0.));
#4580=AXIS2_PLACEMENT_3D('',#4550,#4560,#4570);
#4590=APPLICATION_CONTEXT(' ');
#4600=APPLICATION_PROTOCOL_DEFINITION(' ','automotive_design',1998,#4590
);
#4610=PRODUCT_CONTEXT('',#4590,'mechanical');
#4620=PRODUCT_DEFINITION_CONTEXT('part definition',#4590,'design');
#4630=PRODUCT('DF-OPR-S55-28','DF-OPR-S55-28','',(#4610));
#4640=PRODUCT_RELATED_PRODUCT_CATEGORY('part',' ',(#4630));
#4650=PRODUCT_DEFINITION_FORMATION_WITH_SPECIFIED_SOURCE('','',#4630,
.BOUGHT.);
#4660=PRODUCT_DEFINITION('',' ',#4650,#4620);
#4670=PRODUCT_DEFINITION_SHAPE('','',#4660);
#4680=DIMENSIONAL_EXPONENTS(1.,0.,0.,0.,0.,0.,0.);
#4690=DIMENSIONAL_EXPONENTS(0.,0.,0.,0.,0.,0.,0.);
#4700=DIMENSIONAL_EXPONENTS(0.,0.,0.,0.,0.,0.,0.);
#4710=(LENGTH_UNIT() NAMED_UNIT(*) SI_UNIT(.MILLI.,.METRE.));
#4720=(NAMED_UNIT(*) PLANE_ANGLE_UNIT() SI_UNIT($,.RADIAN.));
#4730=(NAMED_UNIT(*) SI_UNIT($,.STERADIAN.) SOLID_ANGLE_UNIT());
#4740=(GEOMETRIC_REPRESENTATION_CONTEXT(3) 
GLOBAL_UNCERTAINTY_ASSIGNED_CONTEXT((#4750)) 
GLOBAL_UNIT_ASSIGNED_CONTEXT((#4710,#4720,#4730)) REPRESENTATION_CONTEXT
('',''));
#4750=UNCERTAINTY_MEASURE_WITH_UNIT(LENGTH_MEASURE(1.E-6),#4710,
'distance_accuracy_value','maximum gap value');
#4760=ADVANCED_BREP_SHAPE_REPRESENTATION('',(#4580,#4540),#4740);
#4770=SHAPE_DEFINITION_REPRESENTATION(#4670,#4760);
#4780=COLOUR_RGB('',0.,1.,1.);
#4790=FILL_AREA_STYLE_COLOUR('',#4780);
#4800=FILL_AREA_STYLE('',(#4790));
#4810=SURFACE_STYLE_FILL_AREA(#4800);
#4820=SURFACE_SIDE_STYLE('',(#4810));
#4830=SURFACE_STYLE_USAGE(.BOTH.,#4820);
#4840=PRESENTATION_STYLE_ASSIGNMENT((#4830));
#4850=STYLED_ITEM('',(#4840),#4540);
#4860=DRAUGHTING_MODEL('',(#4850),#4740);
#4870=CARTESIAN_POINT('',(-3.01980662698043E-14,-7.105427357601E-15,0.9)
);
#4880=DIRECTION('',(0.,0.,1.));
#4890=DIRECTION('',(-0.978147600733805,0.20791169081776,0.));
#4900=AXIS2_PLACEMENT_3D('',#4870,#4880,#4890);
#4910=ITEM_DEFINED_TRANSFORMATION('DF-OPR-S55-28','',#4580,#4900);
#4920=APPLICATION_CONTEXT(' ');
#4930=APPLICATION_PROTOCOL_DEFINITION(' ','automotive_design',1998,#4920
);
#4940=PRODUCT_CONTEXT('',#4920,'mechanical');
#4950=PRODUCT_DEFINITION_CONTEXT('part definition',#4920,'design');
#4960=PRODUCT('DF-OPR-S55-28','DF-OPR-S55-28','',(#4940));
#4970=PRODUCT_RELATED_PRODUCT_CATEGORY('part',' ',(#4960));
#4980=PRODUCT_DEFINITION_FORMATION_WITH_SPECIFIED_SOURCE('','',#4960,
.BOUGHT.);
#4990=PRODUCT_DEFINITION('',' ',#4980,#4950);
#5000=PRODUCT_DEFINITION_SHAPE('','',#4990);
#5010=DIMENSIONAL_EXPONENTS(1.,0.,0.,0.,0.,0.,0.);
#5020=DIMENSIONAL_EXPONENTS(0.,0.,0.,0.,0.,0.,0.);
#5030=DIMENSIONAL_EXPONENTS(0.,0.,0.,0.,0.,0.,0.);
#5040=(LENGTH_UNIT() NAMED_UNIT(*) SI_UNIT(.MILLI.,.METRE.));
#5050=(NAMED_UNIT(*) PLANE_ANGLE_UNIT() SI_UNIT($,.RADIAN.));
#5060=(NAMED_UNIT(*) SI_UNIT($,.STERADIAN.) SOLID_ANGLE_UNIT());
#5070=(GEOMETRIC_REPRESENTATION_CONTEXT(3) 
GLOBAL_UNCERTAINTY_ASSIGNED_CONTEXT((#5080)) 
GLOBAL_UNIT_ASSIGNED_CONTEXT((#5040,#5050,#5060)) REPRESENTATION_CONTEXT
('',''));
#5080=UNCERTAINTY_MEASURE_WITH_UNIT(LENGTH_MEASURE(1.E-6),#5040,
'distance_accuracy_value','maximum gap value');
#5090=SHAPE_REPRESENTATION('',(#4580,#4900),#5070);
#5100=SHAPE_DEFINITION_REPRESENTATION(#5000,#5090);
#5110=(REPRESENTATION_RELATIONSHIP('','',#4760,#5090) 
REPRESENTATION_RELATIONSHIP_WITH_TRANSFORMATION(#4910) 
SHAPE_REPRESENTATION_RELATIONSHIP());
#5120=NEXT_ASSEMBLY_USAGE_OCCURRENCE('1','','DF-OPR-S55-28',#4990,#4660,
'');
#5130=PRODUCT_DEFINITION_SHAPE('','',#5120);
#5140=CONTEXT_DEPENDENT_SHAPE_REPRESENTATION(#5110,#5130);
ENDSEC;
END-ISO-10303-21;
