ISO-10303-21;
HEADER;
FILE_DESCRIPTION(('CoCreate Modeling STEP Export'),'2;1');
FILE_NAME('DF-OPR-S70-43.stp','2011-06-14T 9:13:02',(''),(''),
'CoCreate Modeling STEP processor for AP214 (Solid Model)',
'CoCreate Modeling 16.50A  01-Dec-2009 (C) Parametric Technology GmbH',
'');
FILE_SCHEMA(('AUTOMOTIVE_DESIGN { 1 0 10303 214 1 1 1 1 }'));
ENDSEC;
DATA;
#10=CARTESIAN_POINT('',(24.,-39.124733008786,-0.9));
#20=DIRECTION('',(0.,0.,-1.));
#30=DIRECTION('',(-1.,1.38777878078145E-16,0.));
#40=AXIS2_PLACEMENT_3D('',#10,#20,#30);
#50=PLANE('',#40);
#60=CARTESIAN_POINT('',(-28.9252484864003,16.7,-0.9));
#70=DIRECTION('',(0.,0.,-1.));
#80=DIRECTION('',(-1.,1.38777878078145E-16,0.));
#90=AXIS2_PLACEMENT_3D('',#60,#70,#80);
#100=CIRCLE('',#90,1.);
#110=CARTESIAN_POINT('',(-29.9252484864003,16.7,-0.9));
#120=VERTEX_POINT('',#110);
#130=CARTESIAN_POINT('',(-27.9252484864003,16.7,-0.9));
#140=VERTEX_POINT('',#130);
#150=EDGE_CURVE('',#120,#140,#100,.T.);
#160=ORIENTED_EDGE('',*,*,#150,.F.);
#170=EDGE_CURVE('',#140,#120,#100,.T.);
#180=ORIENTED_EDGE('',*,*,#170,.F.);
#190=EDGE_LOOP('',(#180,#160));
#200=FACE_BOUND('',#190,.T.);
#210=CARTESIAN_POINT('',(1.54252076430414E-15,7.29032989366284E-15,-0.9)
);
#220=DIRECTION('',(0.,0.,-1.));
#230=DIRECTION('',(-1.,1.38777878078145E-16,0.));
#240=AXIS2_PLACEMENT_3D('',#210,#220,#230);
#250=CIRCLE('',#240,21.5);
#260=CARTESIAN_POINT('',(1.56383723267479E-14,21.5,-0.9));
#270=VERTEX_POINT('',#260);
#280=CARTESIAN_POINT('',(21.5,0.,-0.9));
#290=VERTEX_POINT('',#280);
#300=EDGE_CURVE('',#270,#290,#250,.T.);
#310=ORIENTED_EDGE('',*,*,#300,.F.);
#320=CARTESIAN_POINT('',(-21.5,2.63299061816681E-15,-0.9));
#330=VERTEX_POINT('',#320);
#340=EDGE_CURVE('',#290,#330,#250,.T.);
#350=ORIENTED_EDGE('',*,*,#340,.F.);
#360=EDGE_CURVE('',#330,#270,#250,.T.);
#370=ORIENTED_EDGE('',*,*,#360,.F.);
#380=EDGE_LOOP('',(#370,#350,#310));
#390=FACE_BOUND('',#380,.T.);
#400=CARTESIAN_POINT('',(28.9252484864003,16.7,-0.9));
#410=DIRECTION('',(0.,0.,1.));
#420=DIRECTION('',(1.,0.,0.));
#430=AXIS2_PLACEMENT_3D('',#400,#410,#420);
#440=CIRCLE('',#430,1.);
#450=CARTESIAN_POINT('',(29.9252484864003,16.7,-0.9));
#460=VERTEX_POINT('',#450);
#470=CARTESIAN_POINT('',(27.9252484864003,16.7,-0.9));
#480=VERTEX_POINT('',#470);
#490=EDGE_CURVE('',#460,#480,#440,.T.);
#500=ORIENTED_EDGE('',*,*,#490,.T.);
#510=EDGE_CURVE('',#480,#460,#440,.T.);
#520=ORIENTED_EDGE('',*,*,#510,.T.);
#530=EDGE_LOOP('',(#520,#500));
#540=FACE_BOUND('',#530,.T.);
#550=CARTESIAN_POINT('',(6.1534805964274E-15,-3.5527136788005E-15,-0.9))
;
#560=DIRECTION('',(0.,0.,-1.));
#570=DIRECTION('',(1.,1.11022302462516E-16,0.));
#580=AXIS2_PLACEMENT_3D('',#550,#560,#570);
#590=CIRCLE('',#580,34.9);
#600=CARTESIAN_POINT('',(34.9,3.21964677141295E-16,-0.9));
#610=VERTEX_POINT('',#600);
#620=CARTESIAN_POINT('',(-34.9,-1.17014093637666E-14,-0.9));
#630=VERTEX_POINT('',#620);
#640=EDGE_CURVE('',#610,#630,#590,.T.);
#650=ORIENTED_EDGE('',*,*,#640,.T.);
#660=CARTESIAN_POINT('',(1.05180924622822E-14,34.9,-0.9));
#670=VERTEX_POINT('',#660);
#680=EDGE_CURVE('',#670,#610,#590,.T.);
#690=ORIENTED_EDGE('',*,*,#680,.T.);
#700=EDGE_CURVE('',#630,#670,#590,.T.);
#710=ORIENTED_EDGE('',*,*,#700,.T.);
#720=EDGE_LOOP('',(#710,#690,#650));
#730=FACE_OUTER_BOUND('',#720,.T.);
#740=CARTESIAN_POINT('',(8.73130093883216E-15,-33.4,-0.9));
#750=DIRECTION('',(0.,0.,-1.));
#760=DIRECTION('',(-1.,-1.11022302462516E-16,0.));
#770=AXIS2_PLACEMENT_3D('',#740,#750,#760);
#780=CIRCLE('',#770,1.);
#790=CARTESIAN_POINT('',(5.36176222552931E-16,-34.4,-0.9));
#800=VERTEX_POINT('',#790);
#810=CARTESIAN_POINT('',(-1.,-33.4,-0.9));
#820=VERTEX_POINT('',#810);
#830=EDGE_CURVE('',#800,#820,#780,.T.);
#840=ORIENTED_EDGE('',*,*,#830,.F.);
#850=CARTESIAN_POINT('',(1.,-33.4,-0.9));
#860=VERTEX_POINT('',#850);
#870=EDGE_CURVE('',#820,#860,#780,.T.);
#880=ORIENTED_EDGE('',*,*,#870,.F.);
#890=EDGE_CURVE('',#860,#800,#780,.T.);
#900=ORIENTED_EDGE('',*,*,#890,.F.);
#910=EDGE_LOOP('',(#900,#880,#840));
#920=FACE_BOUND('',#910,.T.);
#930=ADVANCED_FACE('',(#200,#390,#540,#730,#920),#50,.T.);
#940=CARTESIAN_POINT('',(6.1534805964274E-15,-3.5527136788005E-15,0.));
#950=DIRECTION('',(0.,0.,1.));
#960=DIRECTION('',(1.,1.11022302462516E-16,0.));
#970=AXIS2_PLACEMENT_3D('',#940,#950,#960);
#980=CYLINDRICAL_SURFACE('',#970,34.9);
#990=CARTESIAN_POINT('',(-34.9,-1.17014093637666E-14,0.));
#1000=DIRECTION('',(0.,0.,1.));
#1010=VECTOR('',#1000,1.);
#1020=LINE('',#990,#1010);
#1030=CARTESIAN_POINT('',(-34.9,-1.17014093637666E-14,1.1));
#1040=VERTEX_POINT('',#1030);
#1050=EDGE_CURVE('',#630,#1040,#1020,.T.);
#1060=ORIENTED_EDGE('',*,*,#1050,.T.);
#1070=ORIENTED_EDGE('',*,*,#700,.F.);
#1080=ORIENTED_EDGE('',*,*,#680,.F.);
#1090=CARTESIAN_POINT('',(34.9,3.21964677141295E-16,0.));
#1100=DIRECTION('',(0.,0.,1.));
#1110=VECTOR('',#1100,1.);
#1120=LINE('',#1090,#1110);
#1130=CARTESIAN_POINT('',(34.9,3.21964677141295E-16,1.1));
#1140=VERTEX_POINT('',#1130);
#1150=EDGE_CURVE('',#610,#1140,#1120,.T.);
#1160=ORIENTED_EDGE('',*,*,#1150,.F.);
#1170=CARTESIAN_POINT('',(6.1534805964274E-15,-3.5527136788005E-15,1.1))
;
#1180=DIRECTION('',(0.,0.,-1.));
#1190=DIRECTION('',(1.,1.11022302462516E-16,0.));
#1200=AXIS2_PLACEMENT_3D('',#1170,#1180,#1190);
#1210=CIRCLE('',#1200,34.9);
#1220=CARTESIAN_POINT('',(-3.51296506005851E-14,34.9,1.1));
#1230=VERTEX_POINT('',#1220);
#1240=EDGE_CURVE('',#1230,#1140,#1210,.T.);
#1250=ORIENTED_EDGE('',*,*,#1240,.T.);
#1260=EDGE_CURVE('',#1040,#1230,#1210,.T.);
#1270=ORIENTED_EDGE('',*,*,#1260,.T.);
#1280=EDGE_LOOP('',(#1270,#1250,#1160,#1080,#1070,#1060));
#1290=FACE_OUTER_BOUND('',#1280,.T.);
#1300=ADVANCED_FACE('',(#1290),#980,.T.);
#1310=CARTESIAN_POINT('',(-3.12037654643656E-17,-33.4,0.));
#1320=DIRECTION('',(0.,0.,1.));
#1330=DIRECTION('',(1.,0.,0.));
#1340=AXIS2_PLACEMENT_3D('',#1310,#1320,#1330);
#1350=CYLINDRICAL_SURFACE('',#1340,1.);
#1360=CARTESIAN_POINT('',(-1.,-33.4,0.));
#1370=DIRECTION('',(0.,0.,1.));
#1380=VECTOR('',#1370,1.);
#1390=LINE('',#1360,#1380);
#1400=CARTESIAN_POINT('',(-1.,-33.4,0.9));
#1410=VERTEX_POINT('',#1400);
#1420=EDGE_CURVE('',#820,#1410,#1390,.T.);
#1430=ORIENTED_EDGE('',*,*,#1420,.T.);
#1440=ORIENTED_EDGE('',*,*,#830,.T.);
#1450=ORIENTED_EDGE('',*,*,#890,.T.);
#1460=CARTESIAN_POINT('',(1.,-33.4,0.));
#1470=DIRECTION('',(0.,0.,1.));
#1480=VECTOR('',#1470,1.);
#1490=LINE('',#1460,#1480);
#1500=CARTESIAN_POINT('',(1.,-33.4,0.9));
#1510=VERTEX_POINT('',#1500);
#1520=EDGE_CURVE('',#860,#1510,#1490,.T.);
#1530=ORIENTED_EDGE('',*,*,#1520,.F.);
#1540=CARTESIAN_POINT('',(-3.12037654643656E-17,-33.4,0.9));
#1550=DIRECTION('',(0.,0.,1.));
#1560=DIRECTION('',(1.,0.,0.));
#1570=AXIS2_PLACEMENT_3D('',#1540,#1550,#1560);
#1580=CIRCLE('',#1570,1.);
#1590=CARTESIAN_POINT('',(5.36176222552931E-16,-34.4,0.9));
#1600=VERTEX_POINT('',#1590);
#1610=EDGE_CURVE('',#1600,#1510,#1580,.T.);
#1620=ORIENTED_EDGE('',*,*,#1610,.T.);
#1630=EDGE_CURVE('',#1410,#1600,#1580,.T.);
#1640=ORIENTED_EDGE('',*,*,#1630,.T.);
#1650=EDGE_LOOP('',(#1640,#1620,#1530,#1450,#1440,#1430));
#1660=FACE_OUTER_BOUND('',#1650,.T.);
#1670=ADVANCED_FACE('',(#1660),#1350,.F.);
#1680=CARTESIAN_POINT('',(28.9252484864003,16.7,0.9));
#1690=DIRECTION('',(0.,0.,1.));
#1700=DIRECTION('',(1.,0.,0.));
#1710=AXIS2_PLACEMENT_3D('',#1680,#1690,#1700);
#1720=CONICAL_SURFACE('',#1710,1.,0.785398163397447);
#1730=CARTESIAN_POINT('',(29.9252484864003,16.7,0.9));
#1740=DIRECTION('',(0.707106781186546,0.,0.707106781186549));
#1750=VECTOR('',#1740,1.4142135623731);
#1760=LINE('',#1730,#1750);
#1770=CARTESIAN_POINT('',(29.9252484864003,16.7,0.9));
#1780=VERTEX_POINT('',#1770);
#1790=CARTESIAN_POINT('',(30.1252484864003,16.7,1.1));
#1800=VERTEX_POINT('',#1790);
#1810=EDGE_CURVE('',#1780,#1800,#1760,.T.);
#1820=ORIENTED_EDGE('',*,*,#1810,.F.);
#1830=CARTESIAN_POINT('',(28.9252484864003,16.7,1.1));
#1840=DIRECTION('',(0.,0.,1.));
#1850=DIRECTION('',(1.,0.,0.));
#1860=AXIS2_PLACEMENT_3D('',#1830,#1840,#1850);
#1870=CIRCLE('',#1860,1.2);
#1880=CARTESIAN_POINT('',(27.7252484864003,16.7,1.1));
#1890=VERTEX_POINT('',#1880);
#1900=EDGE_CURVE('',#1890,#1800,#1870,.T.);
#1910=ORIENTED_EDGE('',*,*,#1900,.T.);
#1920=CARTESIAN_POINT('',(27.9252484864003,16.7,0.9));
#1930=DIRECTION('',(-0.707106781186546,0.,0.707106781186549));
#1940=VECTOR('',#1930,1.4142135623731);
#1950=LINE('',#1920,#1940);
#1960=CARTESIAN_POINT('',(27.9252484864003,16.7,0.9));
#1970=VERTEX_POINT('',#1960);
#1980=EDGE_CURVE('',#1970,#1890,#1950,.T.);
#1990=ORIENTED_EDGE('',*,*,#1980,.T.);
#2000=CARTESIAN_POINT('',(28.9252484864003,16.7,0.9));
#2010=DIRECTION('',(0.,0.,1.));
#2020=DIRECTION('',(1.,0.,0.));
#2030=AXIS2_PLACEMENT_3D('',#2000,#2010,#2020);
#2040=CIRCLE('',#2030,1.);
#2050=EDGE_CURVE('',#1970,#1780,#2040,.T.);
#2060=ORIENTED_EDGE('',*,*,#2050,.F.);
#2070=EDGE_LOOP('',(#2060,#1990,#1910,#1820));
#2080=FACE_OUTER_BOUND('',#2070,.T.);
#2090=ADVANCED_FACE('',(#2080),#1720,.F.);
#2100=CARTESIAN_POINT('',(0.,0.,0.));
#2110=DIRECTION('',(0.,0.,1.));
#2120=DIRECTION('',(1.,0.,0.));
#2130=AXIS2_PLACEMENT_3D('',#2100,#2110,#2120);
#2140=CYLINDRICAL_SURFACE('',#2130,21.5);
#2150=CARTESIAN_POINT('',(-21.5,2.63299061816681E-15,0.));
#2160=DIRECTION('',(0.,0.,1.));
#2170=VECTOR('',#2160,1.);
#2180=LINE('',#2150,#2170);
#2190=CARTESIAN_POINT('',(-21.5,2.63299061816681E-15,1.1));
#2200=VERTEX_POINT('',#2190);
#2210=EDGE_CURVE('',#330,#2200,#2180,.T.);
#2220=ORIENTED_EDGE('',*,*,#2210,.F.);
#2230=CARTESIAN_POINT('',(1.54252076430414E-15,7.29032989366284E-15,1.1)
);
#2240=DIRECTION('',(0.,0.,-1.));
#2250=DIRECTION('',(-1.,1.38777878078145E-16,0.));
#2260=AXIS2_PLACEMENT_3D('',#2230,#2240,#2250);
#2270=CIRCLE('',#2260,21.5);
#2280=CARTESIAN_POINT('',(-9.57012247226884E-15,21.5,1.1));
#2290=VERTEX_POINT('',#2280);
#2300=EDGE_CURVE('',#2200,#2290,#2270,.T.);
#2310=ORIENTED_EDGE('',*,*,#2300,.F.);
#2320=CARTESIAN_POINT('',(21.5,0.,1.1));
#2330=VERTEX_POINT('',#2320);
#2340=EDGE_CURVE('',#2290,#2330,#2270,.T.);
#2350=ORIENTED_EDGE('',*,*,#2340,.F.);
#2360=CARTESIAN_POINT('',(21.5,0.,0.));
#2370=DIRECTION('',(0.,0.,1.));
#2380=VECTOR('',#2370,1.);
#2390=LINE('',#2360,#2380);
#2400=EDGE_CURVE('',#290,#2330,#2390,.T.);
#2410=ORIENTED_EDGE('',*,*,#2400,.T.);
#2420=ORIENTED_EDGE('',*,*,#300,.T.);
#2430=ORIENTED_EDGE('',*,*,#360,.T.);
#2440=EDGE_LOOP('',(#2430,#2420,#2410,#2350,#2310,#2220));
#2450=FACE_OUTER_BOUND('',#2440,.T.);
#2460=ADVANCED_FACE('',(#2450),#2140,.F.);
#2470=CARTESIAN_POINT('',(-28.9252484864003,16.7,0.));
#2480=DIRECTION('',(0.,0.,1.));
#2490=DIRECTION('',(-1.,1.38777878078145E-16,0.));
#2500=AXIS2_PLACEMENT_3D('',#2470,#2480,#2490);
#2510=CYLINDRICAL_SURFACE('',#2500,1.);
#2520=CARTESIAN_POINT('',(-27.9252484864003,16.7,0.));
#2530=DIRECTION('',(0.,0.,1.));
#2540=VECTOR('',#2530,1.);
#2550=LINE('',#2520,#2540);
#2560=CARTESIAN_POINT('',(-27.9252484864003,16.7,0.9));
#2570=VERTEX_POINT('',#2560);
#2580=EDGE_CURVE('',#140,#2570,#2550,.T.);
#2590=ORIENTED_EDGE('',*,*,#2580,.F.);
#2600=CARTESIAN_POINT('',(-28.9252484864003,16.7,0.9));
#2610=DIRECTION('',(0.,0.,-1.));
#2620=DIRECTION('',(-1.,1.38777878078145E-16,0.));
#2630=AXIS2_PLACEMENT_3D('',#2600,#2610,#2620);
#2640=CIRCLE('',#2630,1.);
#2650=CARTESIAN_POINT('',(-29.9252484864003,16.7,0.9));
#2660=VERTEX_POINT('',#2650);
#2670=EDGE_CURVE('',#2570,#2660,#2640,.T.);
#2680=ORIENTED_EDGE('',*,*,#2670,.F.);
#2690=CARTESIAN_POINT('',(-29.9252484864003,16.7,0.));
#2700=DIRECTION('',(0.,0.,1.));
#2710=VECTOR('',#2700,1.);
#2720=LINE('',#2690,#2710);
#2730=EDGE_CURVE('',#120,#2660,#2720,.T.);
#2740=ORIENTED_EDGE('',*,*,#2730,.T.);
#2750=ORIENTED_EDGE('',*,*,#170,.T.);
#2760=EDGE_LOOP('',(#2750,#2740,#2680,#2590));
#2770=FACE_OUTER_BOUND('',#2760,.T.);
#2780=ADVANCED_FACE('',(#2770),#2510,.F.);
#2790=CARTESIAN_POINT('',(28.9252484864003,16.7,0.));
#2800=DIRECTION('',(0.,0.,1.));
#2810=DIRECTION('',(1.,0.,0.));
#2820=AXIS2_PLACEMENT_3D('',#2790,#2800,#2810);
#2830=CYLINDRICAL_SURFACE('',#2820,1.);
#2840=CARTESIAN_POINT('',(29.9252484864003,16.7,0.));
#2850=DIRECTION('',(0.,0.,1.));
#2860=VECTOR('',#2850,1.);
#2870=LINE('',#2840,#2860);
#2880=EDGE_CURVE('',#460,#1780,#2870,.T.);
#2890=ORIENTED_EDGE('',*,*,#2880,.F.);
#2900=ORIENTED_EDGE('',*,*,#2050,.T.);
#2910=CARTESIAN_POINT('',(27.9252484864003,16.7,0.));
#2920=DIRECTION('',(0.,0.,1.));
#2930=VECTOR('',#2920,1.);
#2940=LINE('',#2910,#2930);
#2950=EDGE_CURVE('',#480,#1970,#2940,.T.);
#2960=ORIENTED_EDGE('',*,*,#2950,.T.);
#2970=ORIENTED_EDGE('',*,*,#510,.F.);
#2980=EDGE_LOOP('',(#2970,#2960,#2900,#2890));
#2990=FACE_OUTER_BOUND('',#2980,.T.);
#3000=ADVANCED_FACE('',(#2990),#2830,.F.);
#3010=CARTESIAN_POINT('',(-3.06145659804153E-15,-33.4,0.9));
#3020=DIRECTION('',(0.,0.,1.));
#3030=DIRECTION('',(-1.,1.38777878078145E-16,0.));
#3040=AXIS2_PLACEMENT_3D('',#3010,#3020,#3030);
#3050=CONICAL_SURFACE('',#3040,1.,0.785398163397448);
#3060=CARTESIAN_POINT('',(-3.06145659804153E-15,-33.4,1.1));
#3070=DIRECTION('',(0.,0.,-1.));
#3080=DIRECTION('',(-1.,1.38777878078145E-16,0.));
#3090=AXIS2_PLACEMENT_3D('',#3060,#3070,#3080);
#3100=CIRCLE('',#3090,1.2);
#3110=CARTESIAN_POINT('',(0.,-34.6,1.1));
#3120=VERTEX_POINT('',#3110);
#3130=CARTESIAN_POINT('',(-1.2,-33.4,1.1));
#3140=VERTEX_POINT('',#3130);
#3150=EDGE_CURVE('',#3120,#3140,#3100,.T.);
#3160=ORIENTED_EDGE('',*,*,#3150,.F.);
#3170=CARTESIAN_POINT('',(-1.,-33.4,0.9));
#3180=DIRECTION('',(-0.707106781186548,0.,0.707106781186548));
#3190=VECTOR('',#3180,1.41421356237309);
#3200=LINE('',#3170,#3190);
#3210=EDGE_CURVE('',#1410,#3140,#3200,.T.);
#3220=ORIENTED_EDGE('',*,*,#3210,.T.);
#3230=ORIENTED_EDGE('',*,*,#1630,.F.);
#3240=ORIENTED_EDGE('',*,*,#1610,.F.);
#3250=CARTESIAN_POINT('',(0.999999999999997,-33.4,0.9));
#3260=DIRECTION('',(0.707106781186548,0.,0.707106781186548));
#3270=VECTOR('',#3260,1.41421356237309);
#3280=LINE('',#3250,#3270);
#3290=CARTESIAN_POINT('',(1.2,-33.4,1.1));
#3300=VERTEX_POINT('',#3290);
#3310=EDGE_CURVE('',#1510,#3300,#3280,.T.);
#3320=ORIENTED_EDGE('',*,*,#3310,.F.);
#3330=EDGE_CURVE('',#3300,#3120,#3100,.T.);
#3340=ORIENTED_EDGE('',*,*,#3330,.F.);
#3350=EDGE_LOOP('',(#3340,#3320,#3240,#3230,#3220,#3160));
#3360=FACE_OUTER_BOUND('',#3350,.T.);
#3370=ADVANCED_FACE('',(#3360),#3050,.F.);
#3380=CARTESIAN_POINT('',(1.54252076430414E-15,7.29032989366284E-15,1.1)
);
#3390=DIRECTION('',(0.,0.,-1.));
#3400=DIRECTION('',(-1.,1.38777878078145E-16,0.));
#3410=AXIS2_PLACEMENT_3D('',#3380,#3390,#3400);
#3420=PLANE('',#3410);
#3430=CARTESIAN_POINT('',(-28.9252484864003,16.7,1.1));
#3440=DIRECTION('',(0.,0.,-1.));
#3450=DIRECTION('',(-1.,1.38777878078145E-16,0.));
#3460=AXIS2_PLACEMENT_3D('',#3430,#3440,#3450);
#3470=CIRCLE('',#3460,1.2);
#3480=CARTESIAN_POINT('',(-30.1252484864003,16.7,1.1));
#3490=VERTEX_POINT('',#3480);
#3500=CARTESIAN_POINT('',(-27.7252484864003,16.7,1.1));
#3510=VERTEX_POINT('',#3500);
#3520=EDGE_CURVE('',#3490,#3510,#3470,.T.);
#3530=ORIENTED_EDGE('',*,*,#3520,.T.);
#3540=EDGE_CURVE('',#3510,#3490,#3470,.T.);
#3550=ORIENTED_EDGE('',*,*,#3540,.T.);
#3560=EDGE_LOOP('',(#3550,#3530));
#3570=FACE_BOUND('',#3560,.T.);
#3580=ORIENTED_EDGE('',*,*,#1240,.F.);
#3590=EDGE_CURVE('',#1140,#1040,#1210,.T.);
#3600=ORIENTED_EDGE('',*,*,#3590,.F.);
#3610=ORIENTED_EDGE('',*,*,#1260,.F.);
#3620=EDGE_LOOP('',(#3610,#3600,#3580));
#3630=FACE_OUTER_BOUND('',#3620,.T.);
#3640=EDGE_CURVE('',#1800,#1890,#1870,.T.);
#3650=ORIENTED_EDGE('',*,*,#3640,.F.);
#3660=ORIENTED_EDGE('',*,*,#1900,.F.);
#3670=EDGE_LOOP('',(#3660,#3650));
#3680=FACE_BOUND('',#3670,.T.);
#3690=EDGE_CURVE('',#2330,#2200,#2270,.T.);
#3700=ORIENTED_EDGE('',*,*,#3690,.T.);
#3710=ORIENTED_EDGE('',*,*,#2340,.T.);
#3720=ORIENTED_EDGE('',*,*,#2300,.T.);
#3730=EDGE_LOOP('',(#3720,#3710,#3700));
#3740=FACE_BOUND('',#3730,.T.);
#3750=EDGE_CURVE('',#3140,#3300,#3100,.T.);
#3760=ORIENTED_EDGE('',*,*,#3750,.T.);
#3770=ORIENTED_EDGE('',*,*,#3150,.T.);
#3780=ORIENTED_EDGE('',*,*,#3330,.T.);
#3790=EDGE_LOOP('',(#3780,#3770,#3760));
#3800=FACE_BOUND('',#3790,.T.);
#3810=ADVANCED_FACE('',(#3570,#3630,#3680,#3740,#3800),#3420,.F.);
#3820=CARTESIAN_POINT('',(-28.9252484864003,16.7,0.9));
#3830=DIRECTION('',(0.,0.,1.));
#3840=DIRECTION('',(-1.,1.38777878078145E-16,0.));
#3850=AXIS2_PLACEMENT_3D('',#3820,#3830,#3840);
#3860=CONICAL_SURFACE('',#3850,1.,0.785398163397447);
#3870=CARTESIAN_POINT('',(-27.9252484864003,16.7,0.9));
#3880=DIRECTION('',(0.707106781186546,0.,0.707106781186549));
#3890=VECTOR('',#3880,1.4142135623731);
#3900=LINE('',#3870,#3890);
#3910=EDGE_CURVE('',#2570,#3510,#3900,.T.);
#3920=ORIENTED_EDGE('',*,*,#3910,.F.);
#3930=ORIENTED_EDGE('',*,*,#3540,.F.);
#3940=CARTESIAN_POINT('',(-29.9252484864003,16.7,0.9));
#3950=DIRECTION('',(-0.707106781186546,0.,0.707106781186549));
#3960=VECTOR('',#3950,1.4142135623731);
#3970=LINE('',#3940,#3960);
#3980=EDGE_CURVE('',#2660,#3490,#3970,.T.);
#3990=ORIENTED_EDGE('',*,*,#3980,.T.);
#4000=ORIENTED_EDGE('',*,*,#2670,.T.);
#4010=EDGE_LOOP('',(#4000,#3990,#3930,#3920));
#4020=FACE_OUTER_BOUND('',#4010,.T.);
#4030=ADVANCED_FACE('',(#4020),#3860,.F.);
#4040=ORIENTED_EDGE('',*,*,#3750,.F.);
#4050=ORIENTED_EDGE('',*,*,#3310,.T.);
#4060=EDGE_CURVE('',#1510,#1410,#1580,.T.);
#4070=ORIENTED_EDGE('',*,*,#4060,.F.);
#4080=ORIENTED_EDGE('',*,*,#3210,.F.);
#4090=EDGE_LOOP('',(#4080,#4070,#4050,#4040));
#4100=FACE_OUTER_BOUND('',#4090,.T.);
#4110=ADVANCED_FACE('',(#4100),#3050,.F.);
#4120=ORIENTED_EDGE('',*,*,#3690,.F.);
#4130=ORIENTED_EDGE('',*,*,#2210,.T.);
#4140=ORIENTED_EDGE('',*,*,#340,.T.);
#4150=ORIENTED_EDGE('',*,*,#2400,.F.);
#4160=EDGE_LOOP('',(#4150,#4140,#4130,#4120));
#4170=FACE_OUTER_BOUND('',#4160,.T.);
#4180=ADVANCED_FACE('',(#4170),#2140,.F.);
#4190=EDGE_CURVE('',#2660,#2570,#2640,.T.);
#4200=ORIENTED_EDGE('',*,*,#4190,.T.);
#4210=ORIENTED_EDGE('',*,*,#3980,.F.);
#4220=ORIENTED_EDGE('',*,*,#3520,.F.);
#4230=ORIENTED_EDGE('',*,*,#3910,.T.);
#4240=EDGE_LOOP('',(#4230,#4220,#4210,#4200));
#4250=FACE_OUTER_BOUND('',#4240,.T.);
#4260=ADVANCED_FACE('',(#4250),#3860,.F.);
#4270=EDGE_CURVE('',#1780,#1970,#2040,.T.);
#4280=ORIENTED_EDGE('',*,*,#4270,.F.);
#4290=ORIENTED_EDGE('',*,*,#1980,.F.);
#4300=ORIENTED_EDGE('',*,*,#3640,.T.);
#4310=ORIENTED_EDGE('',*,*,#1810,.T.);
#4320=EDGE_LOOP('',(#4310,#4300,#4290,#4280));
#4330=FACE_OUTER_BOUND('',#4320,.T.);
#4340=ADVANCED_FACE('',(#4330),#1720,.F.);
#4350=ORIENTED_EDGE('',*,*,#490,.F.);
#4360=ORIENTED_EDGE('',*,*,#2950,.F.);
#4370=ORIENTED_EDGE('',*,*,#4270,.T.);
#4380=ORIENTED_EDGE('',*,*,#2880,.T.);
#4390=EDGE_LOOP('',(#4380,#4370,#4360,#4350));
#4400=FACE_OUTER_BOUND('',#4390,.T.);
#4410=ADVANCED_FACE('',(#4400),#2830,.F.);
#4420=ORIENTED_EDGE('',*,*,#3590,.T.);
#4430=ORIENTED_EDGE('',*,*,#1150,.T.);
#4440=ORIENTED_EDGE('',*,*,#640,.F.);
#4450=ORIENTED_EDGE('',*,*,#1050,.F.);
#4460=EDGE_LOOP('',(#4450,#4440,#4430,#4420));
#4470=FACE_OUTER_BOUND('',#4460,.T.);
#4480=ADVANCED_FACE('',(#4470),#980,.T.);
#4490=ORIENTED_EDGE('',*,*,#4190,.F.);
#4500=ORIENTED_EDGE('',*,*,#2580,.T.);
#4510=ORIENTED_EDGE('',*,*,#150,.T.);
#4520=ORIENTED_EDGE('',*,*,#2730,.F.);
#4530=EDGE_LOOP('',(#4520,#4510,#4500,#4490));
#4540=FACE_OUTER_BOUND('',#4530,.T.);
#4550=ADVANCED_FACE('',(#4540),#2510,.F.);
#4560=ORIENTED_EDGE('',*,*,#870,.T.);
#4570=ORIENTED_EDGE('',*,*,#1420,.F.);
#4580=ORIENTED_EDGE('',*,*,#4060,.T.);
#4590=ORIENTED_EDGE('',*,*,#1520,.T.);
#4600=EDGE_LOOP('',(#4590,#4580,#4570,#4560));
#4610=FACE_OUTER_BOUND('',#4600,.T.);
#4620=ADVANCED_FACE('',(#4610),#1350,.F.);
#4630=CLOSED_SHELL('',(#930,#1300,#1670,#2090,#2460,#2780,#3000,#3370,
#3810,#4030,#4110,#4180,#4260,#4340,#4410,#4480,#4550,#4620));
#4640=MANIFOLD_SOLID_BREP('',#4630);
#4650=CARTESIAN_POINT('',(0.,0.,0.));
#4660=DIRECTION('',(0.,0.,1.));
#4670=DIRECTION('',(1.,0.,0.));
#4680=AXIS2_PLACEMENT_3D('',#4650,#4660,#4670);
#4690=APPLICATION_CONTEXT(' ');
#4700=APPLICATION_PROTOCOL_DEFINITION(' ','automotive_design',1998,#4690
);
#4710=PRODUCT_CONTEXT('',#4690,'mechanical');
#4720=PRODUCT_DEFINITION_CONTEXT('part definition',#4690,'design');
#4730=PRODUCT('DF-OPR-S70-43','DF-OPR-S70-43','',(#4710));
#4740=PRODUCT_RELATED_PRODUCT_CATEGORY('part',' ',(#4730));
#4750=PRODUCT_DEFINITION_FORMATION_WITH_SPECIFIED_SOURCE('','',#4730,
.BOUGHT.);
#4760=PRODUCT_DEFINITION('',' ',#4750,#4720);
#4770=PRODUCT_DEFINITION_SHAPE('','',#4760);
#4780=DIMENSIONAL_EXPONENTS(1.,0.,0.,0.,0.,0.,0.);
#4790=DIMENSIONAL_EXPONENTS(0.,0.,0.,0.,0.,0.,0.);
#4800=DIMENSIONAL_EXPONENTS(0.,0.,0.,0.,0.,0.,0.);
#4810=(LENGTH_UNIT() NAMED_UNIT(*) SI_UNIT(.MILLI.,.METRE.));
#4820=(NAMED_UNIT(*) PLANE_ANGLE_UNIT() SI_UNIT($,.RADIAN.));
#4830=(NAMED_UNIT(*) SI_UNIT($,.STERADIAN.) SOLID_ANGLE_UNIT());
#4840=(GEOMETRIC_REPRESENTATION_CONTEXT(3) 
GLOBAL_UNCERTAINTY_ASSIGNED_CONTEXT((#4850)) 
GLOBAL_UNIT_ASSIGNED_CONTEXT((#4810,#4820,#4830)) REPRESENTATION_CONTEXT
('',''));
#4850=UNCERTAINTY_MEASURE_WITH_UNIT(LENGTH_MEASURE(1.E-6),#4810,
'distance_accuracy_value','maximum gap value');
#4860=ADVANCED_BREP_SHAPE_REPRESENTATION('',(#4680,#4640),#4840);
#4870=SHAPE_DEFINITION_REPRESENTATION(#4770,#4860);
#4880=COLOUR_RGB('',0.,1.,1.);
#4890=FILL_AREA_STYLE_COLOUR('',#4880);
#4900=FILL_AREA_STYLE('',(#4890));
#4910=SURFACE_STYLE_FILL_AREA(#4900);
#4920=SURFACE_SIDE_STYLE('',(#4910));
#4930=SURFACE_STYLE_USAGE(.BOTH.,#4920);
#4940=PRESENTATION_STYLE_ASSIGNMENT((#4930));
#4950=STYLED_ITEM('',(#4940),#4640);
#4960=DRAUGHTING_MODEL('',(#4950),#4840);
#4970=CARTESIAN_POINT('',(-1.6928065861999E-14,6.97900214147795E-15,0.9)
);
#4980=DIRECTION('',(0.,0.,1.));
#4990=DIRECTION('',(-0.988830826202832,0.149042266324103,0.));
#5000=AXIS2_PLACEMENT_3D('',#4970,#4980,#4990);
#5010=ITEM_DEFINED_TRANSFORMATION('DF-OPR-S70-43','',#4680,#5000);
#5020=APPLICATION_CONTEXT(' ');
#5030=APPLICATION_PROTOCOL_DEFINITION(' ','automotive_design',1998,#5020
);
#5040=PRODUCT_CONTEXT('',#5020,'mechanical');
#5050=PRODUCT_DEFINITION_CONTEXT('part definition',#5020,'design');
#5060=PRODUCT('DF-OPR-S70-43','DF-OPR-S70-43','',(#5040));
#5070=PRODUCT_RELATED_PRODUCT_CATEGORY('part',' ',(#5060));
#5080=PRODUCT_DEFINITION_FORMATION_WITH_SPECIFIED_SOURCE('','',#5060,
.BOUGHT.);
#5090=PRODUCT_DEFINITION('',' ',#5080,#5050);
#5100=PRODUCT_DEFINITION_SHAPE('','',#5090);
#5110=DIMENSIONAL_EXPONENTS(1.,0.,0.,0.,0.,0.,0.);
#5120=DIMENSIONAL_EXPONENTS(0.,0.,0.,0.,0.,0.,0.);
#5130=DIMENSIONAL_EXPONENTS(0.,0.,0.,0.,0.,0.,0.);
#5140=(LENGTH_UNIT() NAMED_UNIT(*) SI_UNIT(.MILLI.,.METRE.));
#5150=(NAMED_UNIT(*) PLANE_ANGLE_UNIT() SI_UNIT($,.RADIAN.));
#5160=(NAMED_UNIT(*) SI_UNIT($,.STERADIAN.) SOLID_ANGLE_UNIT());
#5170=(GEOMETRIC_REPRESENTATION_CONTEXT(3) 
GLOBAL_UNCERTAINTY_ASSIGNED_CONTEXT((#5180)) 
GLOBAL_UNIT_ASSIGNED_CONTEXT((#5140,#5150,#5160)) REPRESENTATION_CONTEXT
('',''));
#5180=UNCERTAINTY_MEASURE_WITH_UNIT(LENGTH_MEASURE(1.E-6),#5140,
'distance_accuracy_value','maximum gap value');
#5190=SHAPE_REPRESENTATION('',(#4680,#5000),#5170);
#5200=SHAPE_DEFINITION_REPRESENTATION(#5100,#5190);
#5210=(REPRESENTATION_RELATIONSHIP('','',#4860,#5190) 
REPRESENTATION_RELATIONSHIP_WITH_TRANSFORMATION(#5010) 
SHAPE_REPRESENTATION_RELATIONSHIP());
#5220=NEXT_ASSEMBLY_USAGE_OCCURRENCE('1','','DF-OPR-S70-43',#5090,#4760,
'');
#5230=PRODUCT_DEFINITION_SHAPE('','',#5220);
#5240=CONTEXT_DEPENDENT_SHAPE_REPRESENTATION(#5210,#5230);
ENDSEC;
END-ISO-10303-21;
