ISO-10303-21;
HEADER;
FILE_DESCRIPTION(('CoCreate Modeling STEP Export'),'2;1');
FILE_NAME('DF-OPR-S85-58.stp','2011-06-14T 9:15:29',(''),(''),
'CoCreate Modeling STEP processor for AP214 (Solid Model)',
'CoCreate Modeling 16.50A  01-Dec-2009 (C) Parametric Technology GmbH',
'');
FILE_SCHEMA(('AUTOMOTIVE_DESIGN { 1 0 10303 214 1 1 1 1 }'));
ENDSEC;
DATA;
#10=CARTESIAN_POINT('',(0.,0.,0.));
#20=DIRECTION('',(0.,0.,1.));
#30=DIRECTION('',(1.,-1.11022302462516E-16,-0.));
#40=AXIS2_PLACEMENT_3D('',#10,#20,#30);
#50=CYLINDRICAL_SURFACE('',#40,29.);
#60=CARTESIAN_POINT('',(-29.,-3.31828946114371E-16,0.));
#70=DIRECTION('',(0.,0.,1.));
#80=VECTOR('',#70,1.);
#90=LINE('',#60,#80);
#100=CARTESIAN_POINT('',(-29.,-3.31828946114371E-16,-0.9));
#110=VERTEX_POINT('',#100);
#120=CARTESIAN_POINT('',(-29.,-3.31828946114371E-16,1.1));
#130=VERTEX_POINT('',#120);
#140=EDGE_CURVE('',#110,#130,#90,.T.);
#150=ORIENTED_EDGE('',*,*,#140,.F.);
#160=CARTESIAN_POINT('',(0.,0.,1.1));
#170=DIRECTION('',(0.,0.,-1.));
#180=DIRECTION('',(1.,-1.11022302462516E-16,-0.));
#190=AXIS2_PLACEMENT_3D('',#160,#170,#180);
#200=CIRCLE('',#190,29.);
#210=CARTESIAN_POINT('',(29.,-3.21964677141295E-15,1.1));
#220=VERTEX_POINT('',#210);
#230=EDGE_CURVE('',#130,#220,#200,.T.);
#240=ORIENTED_EDGE('',*,*,#230,.F.);
#250=CARTESIAN_POINT('',(29.,-3.21964677141295E-15,0.));
#260=DIRECTION('',(0.,0.,1.));
#270=VECTOR('',#260,1.);
#280=LINE('',#250,#270);
#290=CARTESIAN_POINT('',(29.,-3.21964677141295E-15,-0.9));
#300=VERTEX_POINT('',#290);
#310=EDGE_CURVE('',#300,#220,#280,.T.);
#320=ORIENTED_EDGE('',*,*,#310,.T.);
#330=CARTESIAN_POINT('',(0.,0.,-0.9));
#340=DIRECTION('',(0.,0.,-1.));
#350=DIRECTION('',(1.,-1.11022302462516E-16,-0.));
#360=AXIS2_PLACEMENT_3D('',#330,#340,#350);
#370=CIRCLE('',#360,29.);
#380=EDGE_CURVE('',#110,#300,#370,.T.);
#390=ORIENTED_EDGE('',*,*,#380,.T.);
#400=EDGE_LOOP('',(#390,#320,#240,#150));
#410=FACE_OUTER_BOUND('',#400,.T.);
#420=ADVANCED_FACE('',(#410),#50,.F.);
#430=CARTESIAN_POINT('',(-6.15348059642741E-15,-3.5527136788005E-15,0.))
;
#440=DIRECTION('',(0.,0.,1.));
#450=DIRECTION('',(-1.,2.22044604925031E-16,0.));
#460=AXIS2_PLACEMENT_3D('',#430,#440,#450);
#470=CYLINDRICAL_SURFACE('',#460,42.4);
#480=CARTESIAN_POINT('',(-42.4,5.86197757002082E-15,0.));
#490=DIRECTION('',(0.,0.,1.));
#500=VECTOR('',#490,1.);
#510=LINE('',#480,#500);
#520=CARTESIAN_POINT('',(-42.4,5.86197757002082E-15,-0.9));
#530=VERTEX_POINT('',#520);
#540=CARTESIAN_POINT('',(-42.4,5.86197757002082E-15,1.1));
#550=VERTEX_POINT('',#540);
#560=EDGE_CURVE('',#530,#550,#510,.T.);
#570=ORIENTED_EDGE('',*,*,#560,.T.);
#580=CARTESIAN_POINT('',(-6.15348059642741E-15,-3.5527136788005E-15,-0.9
));
#590=DIRECTION('',(0.,0.,1.));
#600=DIRECTION('',(-1.,2.22044604925031E-16,0.));
#610=AXIS2_PLACEMENT_3D('',#580,#590,#600);
#620=CIRCLE('',#610,42.4);
#630=CARTESIAN_POINT('',(42.4,-1.81599073560066E-14,-0.9));
#640=VERTEX_POINT('',#630);
#650=EDGE_CURVE('',#640,#530,#620,.T.);
#660=ORIENTED_EDGE('',*,*,#650,.T.);
#670=CARTESIAN_POINT('',(42.4,-1.81599073560066E-14,0.));
#680=DIRECTION('',(0.,0.,1.));
#690=VECTOR('',#680,1.);
#700=LINE('',#670,#690);
#710=CARTESIAN_POINT('',(42.4,-1.81599073560066E-14,1.1));
#720=VERTEX_POINT('',#710);
#730=EDGE_CURVE('',#640,#720,#700,.T.);
#740=ORIENTED_EDGE('',*,*,#730,.F.);
#750=CARTESIAN_POINT('',(-6.15348059642741E-15,-3.5527136788005E-15,1.1)
);
#760=DIRECTION('',(0.,0.,1.));
#770=DIRECTION('',(-1.,2.22044604925031E-16,0.));
#780=AXIS2_PLACEMENT_3D('',#750,#760,#770);
#790=CIRCLE('',#780,42.4);
#800=EDGE_CURVE('',#720,#550,#790,.T.);
#810=ORIENTED_EDGE('',*,*,#800,.F.);
#820=EDGE_LOOP('',(#810,#740,#660,#570));
#830=FACE_OUTER_BOUND('',#820,.T.);
#840=ADVANCED_FACE('',(#830),#470,.T.);
#850=CARTESIAN_POINT('',(-2.4980018054066E-16,-41.,0.));
#860=DIRECTION('',(0.,0.,1.));
#870=DIRECTION('',(1.,0.,0.));
#880=AXIS2_PLACEMENT_3D('',#850,#860,#870);
#890=CYLINDRICAL_SURFACE('',#880,1.);
#900=CARTESIAN_POINT('',(1.,-41.,0.));
#910=DIRECTION('',(0.,0.,1.));
#920=VECTOR('',#910,1.);
#930=LINE('',#900,#920);
#940=CARTESIAN_POINT('',(1.,-41.,-0.9));
#950=VERTEX_POINT('',#940);
#960=CARTESIAN_POINT('',(1.,-41.,0.9));
#970=VERTEX_POINT('',#960);
#980=EDGE_CURVE('',#950,#970,#930,.T.);
#990=ORIENTED_EDGE('',*,*,#980,.F.);
#1000=CARTESIAN_POINT('',(-2.02615701994091E-15,-41.,0.9));
#1010=DIRECTION('',(0.,0.,-1.));
#1020=DIRECTION('',(-1.,1.11022302462516E-16,0.));
#1030=AXIS2_PLACEMENT_3D('',#1000,#1010,#1020);
#1040=CIRCLE('',#1030,1.);
#1050=CARTESIAN_POINT('',(-1.77125463131072E-16,-42.,0.9));
#1060=VERTEX_POINT('',#1050);
#1070=EDGE_CURVE('',#970,#1060,#1040,.T.);
#1080=ORIENTED_EDGE('',*,*,#1070,.F.);
#1090=CARTESIAN_POINT('',(-1.,-41.,0.9));
#1100=VERTEX_POINT('',#1090);
#1110=EDGE_CURVE('',#1060,#1100,#1040,.T.);
#1120=ORIENTED_EDGE('',*,*,#1110,.F.);
#1130=CARTESIAN_POINT('',(-1.,-41.,0.));
#1140=DIRECTION('',(0.,0.,1.));
#1150=VECTOR('',#1140,1.);
#1160=LINE('',#1130,#1150);
#1170=CARTESIAN_POINT('',(-1.,-41.,-0.9));
#1180=VERTEX_POINT('',#1170);
#1190=EDGE_CURVE('',#1180,#1100,#1160,.T.);
#1200=ORIENTED_EDGE('',*,*,#1190,.T.);
#1210=CARTESIAN_POINT('',(8.51270452375586E-15,-41.,-0.9));
#1220=DIRECTION('',(0.,0.,-1.));
#1230=DIRECTION('',(-1.,-1.11022302462516E-16,0.));
#1240=AXIS2_PLACEMENT_3D('',#1210,#1220,#1230);
#1250=CIRCLE('',#1240,1.);
#1260=CARTESIAN_POINT('',(-4.33497200412763E-16,-42.,-0.9));
#1270=VERTEX_POINT('',#1260);
#1280=EDGE_CURVE('',#1270,#1180,#1250,.T.);
#1290=ORIENTED_EDGE('',*,*,#1280,.T.);
#1300=EDGE_CURVE('',#950,#1270,#1250,.T.);
#1310=ORIENTED_EDGE('',*,*,#1300,.T.);
#1320=EDGE_LOOP('',(#1310,#1290,#1200,#1120,#1080,#990));
#1330=FACE_OUTER_BOUND('',#1320,.T.);
#1340=ADVANCED_FACE('',(#1330),#890,.F.);
#1350=CARTESIAN_POINT('',(35.507041555162,20.5,0.9));
#1360=DIRECTION('',(0.,0.,1.));
#1370=DIRECTION('',(1.,0.,0.));
#1380=AXIS2_PLACEMENT_3D('',#1350,#1360,#1370);
#1390=CONICAL_SURFACE('',#1380,1.,0.785398163397456);
#1400=CARTESIAN_POINT('',(36.507041555162,20.5,0.9));
#1410=DIRECTION('',(0.707106781186553,0.,0.707106781186542));
#1420=VECTOR('',#1410,1.41421356237308);
#1430=LINE('',#1400,#1420);
#1440=CARTESIAN_POINT('',(36.507041555162,20.5,0.9));
#1450=VERTEX_POINT('',#1440);
#1460=CARTESIAN_POINT('',(36.707041555162,20.5,1.1));
#1470=VERTEX_POINT('',#1460);
#1480=EDGE_CURVE('',#1450,#1470,#1430,.T.);
#1490=ORIENTED_EDGE('',*,*,#1480,.F.);
#1500=CARTESIAN_POINT('',(35.507041555162,20.5,1.1));
#1510=DIRECTION('',(0.,0.,1.));
#1520=DIRECTION('',(1.,0.,0.));
#1530=AXIS2_PLACEMENT_3D('',#1500,#1510,#1520);
#1540=CIRCLE('',#1530,1.2);
#1550=CARTESIAN_POINT('',(34.307041555162,20.5,1.1));
#1560=VERTEX_POINT('',#1550);
#1570=EDGE_CURVE('',#1560,#1470,#1540,.T.);
#1580=ORIENTED_EDGE('',*,*,#1570,.T.);
#1590=CARTESIAN_POINT('',(34.507041555162,20.5,0.9));
#1600=DIRECTION('',(-0.707106781186553,0.,0.707106781186542));
#1610=VECTOR('',#1600,1.41421356237308);
#1620=LINE('',#1590,#1610);
#1630=CARTESIAN_POINT('',(34.507041555162,20.5,0.9));
#1640=VERTEX_POINT('',#1630);
#1650=EDGE_CURVE('',#1640,#1560,#1620,.T.);
#1660=ORIENTED_EDGE('',*,*,#1650,.T.);
#1670=CARTESIAN_POINT('',(35.507041555162,20.5,0.9));
#1680=DIRECTION('',(0.,0.,1.));
#1690=DIRECTION('',(1.,0.,0.));
#1700=AXIS2_PLACEMENT_3D('',#1670,#1680,#1690);
#1710=CIRCLE('',#1700,1.);
#1720=EDGE_CURVE('',#1640,#1450,#1710,.T.);
#1730=ORIENTED_EDGE('',*,*,#1720,.F.);
#1740=EDGE_LOOP('',(#1730,#1660,#1580,#1490));
#1750=FACE_OUTER_BOUND('',#1740,.T.);
#1760=ADVANCED_FACE('',(#1750),#1390,.F.);
#1770=CARTESIAN_POINT('',(0.,0.,1.1));
#1780=DIRECTION('',(0.,0.,-1.));
#1790=DIRECTION('',(-1.,1.11022302462516E-16,0.));
#1800=AXIS2_PLACEMENT_3D('',#1770,#1780,#1790);
#1810=PLANE('',#1800);
#1820=EDGE_CURVE('',#1470,#1560,#1540,.T.);
#1830=ORIENTED_EDGE('',*,*,#1820,.F.);
#1840=ORIENTED_EDGE('',*,*,#1570,.F.);
#1850=EDGE_LOOP('',(#1840,#1830));
#1860=FACE_BOUND('',#1850,.T.);
#1870=EDGE_CURVE('',#220,#130,#200,.T.);
#1880=ORIENTED_EDGE('',*,*,#1870,.T.);
#1890=ORIENTED_EDGE('',*,*,#230,.T.);
#1900=EDGE_LOOP('',(#1890,#1880));
#1910=FACE_BOUND('',#1900,.T.);
#1920=CARTESIAN_POINT('',(-35.507041555162,20.5,1.1));
#1930=DIRECTION('',(0.,0.,-1.));
#1940=DIRECTION('',(-1.,1.11022302462516E-16,0.));
#1950=AXIS2_PLACEMENT_3D('',#1920,#1930,#1940);
#1960=CIRCLE('',#1950,1.2);
#1970=CARTESIAN_POINT('',(-36.707041555162,20.5,1.1));
#1980=VERTEX_POINT('',#1970);
#1990=CARTESIAN_POINT('',(-34.307041555162,20.5,1.1));
#2000=VERTEX_POINT('',#1990);
#2010=EDGE_CURVE('',#1980,#2000,#1960,.T.);
#2020=ORIENTED_EDGE('',*,*,#2010,.T.);
#2030=EDGE_CURVE('',#2000,#1980,#1960,.T.);
#2040=ORIENTED_EDGE('',*,*,#2030,.T.);
#2050=EDGE_LOOP('',(#2040,#2020));
#2060=FACE_BOUND('',#2050,.T.);
#2070=CARTESIAN_POINT('',(-2.4980018054066E-16,-41.,1.1));
#2080=DIRECTION('',(0.,0.,1.));
#2090=DIRECTION('',(1.,0.,0.));
#2100=AXIS2_PLACEMENT_3D('',#2070,#2080,#2090);
#2110=CIRCLE('',#2100,1.2);
#2120=CARTESIAN_POINT('',(9.01321533182186E-17,-39.8,1.1));
#2130=VERTEX_POINT('',#2120);
#2140=CARTESIAN_POINT('',(-1.2,-41.,1.1));
#2150=VERTEX_POINT('',#2140);
#2160=EDGE_CURVE('',#2130,#2150,#2110,.T.);
#2170=ORIENTED_EDGE('',*,*,#2160,.F.);
#2180=CARTESIAN_POINT('',(1.2,-41.,1.1));
#2190=VERTEX_POINT('',#2180);
#2200=EDGE_CURVE('',#2150,#2190,#2110,.T.);
#2210=ORIENTED_EDGE('',*,*,#2200,.F.);
#2220=EDGE_CURVE('',#2190,#2130,#2110,.T.);
#2230=ORIENTED_EDGE('',*,*,#2220,.F.);
#2240=EDGE_LOOP('',(#2230,#2210,#2170));
#2250=FACE_BOUND('',#2240,.T.);
#2260=EDGE_CURVE('',#550,#720,#790,.T.);
#2270=ORIENTED_EDGE('',*,*,#2260,.T.);
#2280=ORIENTED_EDGE('',*,*,#800,.T.);
#2290=EDGE_LOOP('',(#2280,#2270));
#2300=FACE_OUTER_BOUND('',#2290,.T.);
#2310=ADVANCED_FACE('',(#1860,#1910,#2060,#2250,#2300),#1810,.F.);
#2320=CARTESIAN_POINT('',(-2.4980018054066E-16,-41.,0.9));
#2330=DIRECTION('',(0.,0.,1.));
#2340=DIRECTION('',(1.,0.,0.));
#2350=AXIS2_PLACEMENT_3D('',#2320,#2330,#2340);
#2360=CONICAL_SURFACE('',#2350,1.,0.785398163397448);
#2370=CARTESIAN_POINT('',(1.,-41.,0.9));
#2380=DIRECTION('',(0.707106781186548,0.,0.707106781186548));
#2390=VECTOR('',#2380,1.41421356237309);
#2400=LINE('',#2370,#2390);
#2410=EDGE_CURVE('',#970,#2190,#2400,.T.);
#2420=ORIENTED_EDGE('',*,*,#2410,.F.);
#2430=ORIENTED_EDGE('',*,*,#2200,.T.);
#2440=CARTESIAN_POINT('',(-1.,-41.,0.9));
#2450=DIRECTION('',(-0.707106781186548,0.,0.707106781186548));
#2460=VECTOR('',#2450,1.41421356237309);
#2470=LINE('',#2440,#2460);
#2480=EDGE_CURVE('',#1100,#2150,#2470,.T.);
#2490=ORIENTED_EDGE('',*,*,#2480,.T.);
#2500=ORIENTED_EDGE('',*,*,#1110,.T.);
#2510=ORIENTED_EDGE('',*,*,#1070,.T.);
#2520=EDGE_LOOP('',(#2510,#2500,#2490,#2430,#2420));
#2530=FACE_OUTER_BOUND('',#2520,.T.);
#2540=ADVANCED_FACE('',(#2530),#2360,.F.);
#2550=CARTESIAN_POINT('',(35.507041555162,20.5,0.));
#2560=DIRECTION('',(0.,0.,1.));
#2570=DIRECTION('',(1.,0.,0.));
#2580=AXIS2_PLACEMENT_3D('',#2550,#2560,#2570);
#2590=CYLINDRICAL_SURFACE('',#2580,1.);
#2600=CARTESIAN_POINT('',(36.507041555162,20.5,0.));
#2610=DIRECTION('',(0.,0.,1.));
#2620=VECTOR('',#2610,1.);
#2630=LINE('',#2600,#2620);
#2640=CARTESIAN_POINT('',(36.507041555162,20.5,-0.9));
#2650=VERTEX_POINT('',#2640);
#2660=EDGE_CURVE('',#2650,#1450,#2630,.T.);
#2670=ORIENTED_EDGE('',*,*,#2660,.F.);
#2680=ORIENTED_EDGE('',*,*,#1720,.T.);
#2690=CARTESIAN_POINT('',(34.507041555162,20.5,0.));
#2700=DIRECTION('',(0.,0.,1.));
#2710=VECTOR('',#2700,1.);
#2720=LINE('',#2690,#2710);
#2730=CARTESIAN_POINT('',(34.507041555162,20.5,-0.9));
#2740=VERTEX_POINT('',#2730);
#2750=EDGE_CURVE('',#2740,#1640,#2720,.T.);
#2760=ORIENTED_EDGE('',*,*,#2750,.T.);
#2770=CARTESIAN_POINT('',(35.507041555162,20.5,-0.9));
#2780=DIRECTION('',(0.,0.,1.));
#2790=DIRECTION('',(1.,0.,0.));
#2800=AXIS2_PLACEMENT_3D('',#2770,#2780,#2790);
#2810=CIRCLE('',#2800,1.);
#2820=EDGE_CURVE('',#2740,#2650,#2810,.T.);
#2830=ORIENTED_EDGE('',*,*,#2820,.F.);
#2840=EDGE_LOOP('',(#2830,#2760,#2680,#2670));
#2850=FACE_OUTER_BOUND('',#2840,.T.);
#2860=ADVANCED_FACE('',(#2850),#2590,.F.);
#2870=CARTESIAN_POINT('',(24.,-39.124733008786,-0.9));
#2880=DIRECTION('',(0.,0.,-1.));
#2890=DIRECTION('',(-1.,1.11022302462516E-16,0.));
#2900=AXIS2_PLACEMENT_3D('',#2870,#2880,#2890);
#2910=PLANE('',#2900);
#2920=EDGE_CURVE('',#2650,#2740,#2810,.T.);
#2930=ORIENTED_EDGE('',*,*,#2920,.T.);
#2940=ORIENTED_EDGE('',*,*,#2820,.T.);
#2950=EDGE_LOOP('',(#2940,#2930));
#2960=FACE_BOUND('',#2950,.T.);
#2970=EDGE_CURVE('',#300,#110,#370,.T.);
#2980=ORIENTED_EDGE('',*,*,#2970,.F.);
#2990=ORIENTED_EDGE('',*,*,#380,.F.);
#3000=EDGE_LOOP('',(#2990,#2980));
#3010=FACE_BOUND('',#3000,.T.);
#3020=CARTESIAN_POINT('',(-35.507041555162,20.5,-0.9));
#3030=DIRECTION('',(0.,0.,-1.));
#3040=DIRECTION('',(-1.,1.11022302462516E-16,0.));
#3050=AXIS2_PLACEMENT_3D('',#3020,#3030,#3040);
#3060=CIRCLE('',#3050,1.);
#3070=CARTESIAN_POINT('',(-36.507041555162,20.5,-0.9));
#3080=VERTEX_POINT('',#3070);
#3090=CARTESIAN_POINT('',(-34.507041555162,20.5,-0.9));
#3100=VERTEX_POINT('',#3090);
#3110=EDGE_CURVE('',#3080,#3100,#3060,.T.);
#3120=ORIENTED_EDGE('',*,*,#3110,.F.);
#3130=EDGE_CURVE('',#3100,#3080,#3060,.T.);
#3140=ORIENTED_EDGE('',*,*,#3130,.F.);
#3150=EDGE_LOOP('',(#3140,#3120));
#3160=FACE_BOUND('',#3150,.T.);
#3170=ORIENTED_EDGE('',*,*,#1280,.F.);
#3180=EDGE_CURVE('',#1180,#950,#1250,.T.);
#3190=ORIENTED_EDGE('',*,*,#3180,.F.);
#3200=ORIENTED_EDGE('',*,*,#1300,.F.);
#3210=EDGE_LOOP('',(#3200,#3190,#3170));
#3220=FACE_BOUND('',#3210,.T.);
#3230=EDGE_CURVE('',#530,#640,#620,.T.);
#3240=ORIENTED_EDGE('',*,*,#3230,.F.);
#3250=ORIENTED_EDGE('',*,*,#650,.F.);
#3260=EDGE_LOOP('',(#3250,#3240));
#3270=FACE_OUTER_BOUND('',#3260,.T.);
#3280=ADVANCED_FACE('',(#2960,#3010,#3160,#3220,#3270),#2910,.T.);
#3290=CARTESIAN_POINT('',(-35.507041555162,20.5,0.));
#3300=DIRECTION('',(0.,0.,1.));
#3310=DIRECTION('',(-1.,1.11022302462516E-16,0.));
#3320=AXIS2_PLACEMENT_3D('',#3290,#3300,#3310);
#3330=CYLINDRICAL_SURFACE('',#3320,1.);
#3340=CARTESIAN_POINT('',(-34.507041555162,20.5,0.));
#3350=DIRECTION('',(0.,0.,1.));
#3360=VECTOR('',#3350,1.);
#3370=LINE('',#3340,#3360);
#3380=CARTESIAN_POINT('',(-34.507041555162,20.5,0.9));
#3390=VERTEX_POINT('',#3380);
#3400=EDGE_CURVE('',#3100,#3390,#3370,.T.);
#3410=ORIENTED_EDGE('',*,*,#3400,.F.);
#3420=CARTESIAN_POINT('',(-35.507041555162,20.5,0.9));
#3430=DIRECTION('',(0.,0.,-1.));
#3440=DIRECTION('',(-1.,1.11022302462516E-16,0.));
#3450=AXIS2_PLACEMENT_3D('',#3420,#3430,#3440);
#3460=CIRCLE('',#3450,1.);
#3470=CARTESIAN_POINT('',(-36.507041555162,20.5,0.9));
#3480=VERTEX_POINT('',#3470);
#3490=EDGE_CURVE('',#3390,#3480,#3460,.T.);
#3500=ORIENTED_EDGE('',*,*,#3490,.F.);
#3510=CARTESIAN_POINT('',(-36.507041555162,20.5,0.));
#3520=DIRECTION('',(0.,0.,1.));
#3530=VECTOR('',#3520,1.);
#3540=LINE('',#3510,#3530);
#3550=EDGE_CURVE('',#3080,#3480,#3540,.T.);
#3560=ORIENTED_EDGE('',*,*,#3550,.T.);
#3570=ORIENTED_EDGE('',*,*,#3130,.T.);
#3580=EDGE_LOOP('',(#3570,#3560,#3500,#3410));
#3590=FACE_OUTER_BOUND('',#3580,.T.);
#3600=ADVANCED_FACE('',(#3590),#3330,.F.);
#3610=CARTESIAN_POINT('',(-35.507041555162,20.5,0.9));
#3620=DIRECTION('',(0.,0.,1.));
#3630=DIRECTION('',(-1.,1.11022302462516E-16,0.));
#3640=AXIS2_PLACEMENT_3D('',#3610,#3620,#3630);
#3650=CONICAL_SURFACE('',#3640,1.,0.785398163397456);
#3660=CARTESIAN_POINT('',(-34.507041555162,20.5,0.9));
#3670=DIRECTION('',(0.707106781186553,0.,0.707106781186542));
#3680=VECTOR('',#3670,1.41421356237308);
#3690=LINE('',#3660,#3680);
#3700=EDGE_CURVE('',#3390,#2000,#3690,.T.);
#3710=ORIENTED_EDGE('',*,*,#3700,.F.);
#3720=ORIENTED_EDGE('',*,*,#2030,.F.);
#3730=CARTESIAN_POINT('',(-36.507041555162,20.5,0.9));
#3740=DIRECTION('',(-0.707106781186553,0.,0.707106781186542));
#3750=VECTOR('',#3740,1.41421356237308);
#3760=LINE('',#3730,#3750);
#3770=EDGE_CURVE('',#3480,#1980,#3760,.T.);
#3780=ORIENTED_EDGE('',*,*,#3770,.T.);
#3790=ORIENTED_EDGE('',*,*,#3490,.T.);
#3800=EDGE_LOOP('',(#3790,#3780,#3720,#3710));
#3810=FACE_OUTER_BOUND('',#3800,.T.);
#3820=ADVANCED_FACE('',(#3810),#3650,.F.);
#3830=ORIENTED_EDGE('',*,*,#2410,.T.);
#3840=EDGE_CURVE('',#1100,#970,#1040,.T.);
#3850=ORIENTED_EDGE('',*,*,#3840,.T.);
#3860=ORIENTED_EDGE('',*,*,#2480,.F.);
#3870=ORIENTED_EDGE('',*,*,#2160,.T.);
#3880=ORIENTED_EDGE('',*,*,#2220,.T.);
#3890=EDGE_LOOP('',(#3880,#3870,#3860,#3850,#3830));
#3900=FACE_OUTER_BOUND('',#3890,.T.);
#3910=ADVANCED_FACE('',(#3900),#2360,.F.);
#3920=ORIENTED_EDGE('',*,*,#2920,.F.);
#3930=ORIENTED_EDGE('',*,*,#2750,.F.);
#3940=EDGE_CURVE('',#1450,#1640,#1710,.T.);
#3950=ORIENTED_EDGE('',*,*,#3940,.T.);
#3960=ORIENTED_EDGE('',*,*,#2660,.T.);
#3970=EDGE_LOOP('',(#3960,#3950,#3930,#3920));
#3980=FACE_OUTER_BOUND('',#3970,.T.);
#3990=ADVANCED_FACE('',(#3980),#2590,.F.);
#4000=ORIENTED_EDGE('',*,*,#3940,.F.);
#4010=ORIENTED_EDGE('',*,*,#1650,.F.);
#4020=ORIENTED_EDGE('',*,*,#1820,.T.);
#4030=ORIENTED_EDGE('',*,*,#1480,.T.);
#4040=EDGE_LOOP('',(#4030,#4020,#4010,#4000));
#4050=FACE_OUTER_BOUND('',#4040,.T.);
#4060=ADVANCED_FACE('',(#4050),#1390,.F.);
#4070=ORIENTED_EDGE('',*,*,#1870,.F.);
#4080=ORIENTED_EDGE('',*,*,#140,.T.);
#4090=ORIENTED_EDGE('',*,*,#2970,.T.);
#4100=ORIENTED_EDGE('',*,*,#310,.F.);
#4110=EDGE_LOOP('',(#4100,#4090,#4080,#4070));
#4120=FACE_OUTER_BOUND('',#4110,.T.);
#4130=ADVANCED_FACE('',(#4120),#50,.F.);
#4140=ORIENTED_EDGE('',*,*,#2260,.F.);
#4150=ORIENTED_EDGE('',*,*,#730,.T.);
#4160=ORIENTED_EDGE('',*,*,#3230,.T.);
#4170=ORIENTED_EDGE('',*,*,#560,.F.);
#4180=EDGE_LOOP('',(#4170,#4160,#4150,#4140));
#4190=FACE_OUTER_BOUND('',#4180,.T.);
#4200=ADVANCED_FACE('',(#4190),#470,.T.);
#4210=ORIENTED_EDGE('',*,*,#3110,.T.);
#4220=ORIENTED_EDGE('',*,*,#3550,.F.);
#4230=EDGE_CURVE('',#3480,#3390,#3460,.T.);
#4240=ORIENTED_EDGE('',*,*,#4230,.F.);
#4250=ORIENTED_EDGE('',*,*,#3400,.T.);
#4260=EDGE_LOOP('',(#4250,#4240,#4220,#4210));
#4270=FACE_OUTER_BOUND('',#4260,.T.);
#4280=ADVANCED_FACE('',(#4270),#3330,.F.);
#4290=ORIENTED_EDGE('',*,*,#3180,.T.);
#4300=ORIENTED_EDGE('',*,*,#1190,.F.);
#4310=ORIENTED_EDGE('',*,*,#3840,.F.);
#4320=ORIENTED_EDGE('',*,*,#980,.T.);
#4330=EDGE_LOOP('',(#4320,#4310,#4300,#4290));
#4340=FACE_OUTER_BOUND('',#4330,.T.);
#4350=ADVANCED_FACE('',(#4340),#890,.F.);
#4360=ORIENTED_EDGE('',*,*,#2010,.F.);
#4370=ORIENTED_EDGE('',*,*,#3700,.T.);
#4380=ORIENTED_EDGE('',*,*,#4230,.T.);
#4390=ORIENTED_EDGE('',*,*,#3770,.F.);
#4400=EDGE_LOOP('',(#4390,#4380,#4370,#4360));
#4410=FACE_OUTER_BOUND('',#4400,.T.);
#4420=ADVANCED_FACE('',(#4410),#3650,.F.);
#4430=CLOSED_SHELL('',(#420,#840,#1340,#1760,#2310,#2540,#2860,#3280,
#3600,#3820,#3910,#3990,#4060,#4130,#4200,#4280,#4350,#4420));
#4440=MANIFOLD_SOLID_BREP('',#4430);
#4450=CARTESIAN_POINT('',(0.,0.,0.));
#4460=DIRECTION('',(0.,0.,1.));
#4470=DIRECTION('',(1.,0.,0.));
#4480=AXIS2_PLACEMENT_3D('',#4450,#4460,#4470);
#4490=APPLICATION_CONTEXT(' ');
#4500=APPLICATION_PROTOCOL_DEFINITION(' ','automotive_design',1998,#4490
);
#4510=PRODUCT_CONTEXT('',#4490,'mechanical');
#4520=PRODUCT_DEFINITION_CONTEXT('part definition',#4490,'design');
#4530=PRODUCT('DF-OPR-S85-58','DF-OPR-S85-58','',(#4510));
#4540=PRODUCT_RELATED_PRODUCT_CATEGORY('part',' ',(#4530));
#4550=PRODUCT_DEFINITION_FORMATION_WITH_SPECIFIED_SOURCE('','',#4530,
.BOUGHT.);
#4560=PRODUCT_DEFINITION('',' ',#4550,#4520);
#4570=PRODUCT_DEFINITION_SHAPE('','',#4560);
#4580=DIMENSIONAL_EXPONENTS(1.,0.,0.,0.,0.,0.,0.);
#4590=DIMENSIONAL_EXPONENTS(0.,0.,0.,0.,0.,0.,0.);
#4600=DIMENSIONAL_EXPONENTS(0.,0.,0.,0.,0.,0.,0.);
#4610=(LENGTH_UNIT() NAMED_UNIT(*) SI_UNIT(.MILLI.,.METRE.));
#4620=(NAMED_UNIT(*) PLANE_ANGLE_UNIT() SI_UNIT($,.RADIAN.));
#4630=(NAMED_UNIT(*) SI_UNIT($,.STERADIAN.) SOLID_ANGLE_UNIT());
#4640=(GEOMETRIC_REPRESENTATION_CONTEXT(3) 
GLOBAL_UNCERTAINTY_ASSIGNED_CONTEXT((#4650)) 
GLOBAL_UNIT_ASSIGNED_CONTEXT((#4610,#4620,#4630)) REPRESENTATION_CONTEXT
('',''));
#4650=UNCERTAINTY_MEASURE_WITH_UNIT(LENGTH_MEASURE(1.E-6),#4610,
'distance_accuracy_value','maximum gap value');
#4660=ADVANCED_BREP_SHAPE_REPRESENTATION('',(#4480,#4440),#4640);
#4670=SHAPE_DEFINITION_REPRESENTATION(#4570,#4660);
#4680=COLOUR_RGB('',0.,1.,1.);
#4690=FILL_AREA_STYLE_COLOUR('',#4680);
#4700=FILL_AREA_STYLE('',(#4690));
#4710=SURFACE_STYLE_FILL_AREA(#4700);
#4720=SURFACE_SIDE_STYLE('',(#4710));
#4730=SURFACE_STYLE_USAGE(.BOTH.,#4720);
#4740=PRESENTATION_STYLE_ASSIGNMENT((#4730));
#4750=STYLED_ITEM('',(#4740),#4440);
#4760=DRAUGHTING_MODEL('',(#4750),#4640);
#4770=CARTESIAN_POINT('',(1.15647606172242E-14,-4.20922863108365E-15,0.9
));
#4780=DIRECTION('',(0.,0.,1.));
#4790=DIRECTION('',(-0.939692620785908,0.342020143325669,0.));
#4800=AXIS2_PLACEMENT_3D('',#4770,#4780,#4790);
#4810=ITEM_DEFINED_TRANSFORMATION('DF-OPR-S85-58','',#4480,#4800);
#4820=APPLICATION_CONTEXT(' ');
#4830=APPLICATION_PROTOCOL_DEFINITION(' ','automotive_design',1998,#4820
);
#4840=PRODUCT_CONTEXT('',#4820,'mechanical');
#4850=PRODUCT_DEFINITION_CONTEXT('part definition',#4820,'design');
#4860=PRODUCT('DF-OPR-S85-58','DF-OPR-S85-58','',(#4840));
#4870=PRODUCT_RELATED_PRODUCT_CATEGORY('part',' ',(#4860));
#4880=PRODUCT_DEFINITION_FORMATION_WITH_SPECIFIED_SOURCE('','',#4860,
.BOUGHT.);
#4890=PRODUCT_DEFINITION('',' ',#4880,#4850);
#4900=PRODUCT_DEFINITION_SHAPE('','',#4890);
#4910=DIMENSIONAL_EXPONENTS(1.,0.,0.,0.,0.,0.,0.);
#4920=DIMENSIONAL_EXPONENTS(0.,0.,0.,0.,0.,0.,0.);
#4930=DIMENSIONAL_EXPONENTS(0.,0.,0.,0.,0.,0.,0.);
#4940=(LENGTH_UNIT() NAMED_UNIT(*) SI_UNIT(.MILLI.,.METRE.));
#4950=(NAMED_UNIT(*) PLANE_ANGLE_UNIT() SI_UNIT($,.RADIAN.));
#4960=(NAMED_UNIT(*) SI_UNIT($,.STERADIAN.) SOLID_ANGLE_UNIT());
#4970=(GEOMETRIC_REPRESENTATION_CONTEXT(3) 
GLOBAL_UNCERTAINTY_ASSIGNED_CONTEXT((#4980)) 
GLOBAL_UNIT_ASSIGNED_CONTEXT((#4940,#4950,#4960)) REPRESENTATION_CONTEXT
('',''));
#4980=UNCERTAINTY_MEASURE_WITH_UNIT(LENGTH_MEASURE(1.E-6),#4940,
'distance_accuracy_value','maximum gap value');
#4990=SHAPE_REPRESENTATION('',(#4480,#4800),#4970);
#5000=SHAPE_DEFINITION_REPRESENTATION(#4900,#4990);
#5010=(REPRESENTATION_RELATIONSHIP('','',#4660,#4990) 
REPRESENTATION_RELATIONSHIP_WITH_TRANSFORMATION(#4810) 
SHAPE_REPRESENTATION_RELATIONSHIP());
#5020=NEXT_ASSEMBLY_USAGE_OCCURRENCE('1','','DF-OPR-S85-58',#4890,#4560,
'');
#5030=PRODUCT_DEFINITION_SHAPE('','',#5020);
#5040=CONTEXT_DEPENDENT_SHAPE_REPRESENTATION(#5010,#5030);
ENDSEC;
END-ISO-10303-21;
